  0
SECTION
  2
HEADER
  9
$ACADVER
  1
AC1015
  9
$ACADMAINTVER
 70
     6
  9
$DWGCODEPAGE
  3
ANSI_1254
  9
$INSBASE
 10
0.0
 20
0.0
 30
0.0
  9
$EXTMIN
 10
0.0
 20
0.0
 30
0.0
  9
$EXTMAX
 10
279.4
 20
215.9
 30
0.0
  9
$LIMMIN
 10
0.0
 20
0.0
  9
$LIMMAX
 10
279.4
 20
215.9
  9
$ORTHOMODE
 70
     0
  9
$REGENMODE
 70
     1
  9
$FILLMODE
 70
     1
  9
$QTEXTMODE
 70
     0
  9
$MIRRTEXT
 70
     1
  9
$LTSCALE
 40
1.0
  9
$ATTMODE
 70
     1
  9
$TEXTSIZE
 40
3.5
  9
$TRACEWID
 40
1.0
  9
$TEXTSTYLE
  7
Standard
  9
$CLAYER
  8
0
  9
$CELTYPE
  6
ByLayer
  9
$CECOLOR
 62
   256
  9
$CELTSCALE
 40
1.0
  9
$DISPSILH
 70
     0
  9
$DIMSCALE
 40
1.0
  9
$DIMASZ
 40
3.5
  9
$DIMEXO
 40
1.0
  9
$DIMDLI
 40
3.75
  9
$DIMRND
 40
0.0
  9
$DIMDLE
 40
0.0
  9
$DIMEXE
 40
1.0
  9
$DIMTP
 40
0.0
  9
$DIMTM
 40
0.0
  9
$DIMTXT
 40
3.5
  9
$DIMCEN
 40
2.5
  9
$DIMTSZ
 40
0.0
  9
$DIMTOL
 70
     0
  9
$DIMLIM
 70
     0
  9
$DIMTIH
 70
     1
  9
$DIMTOH
 70
     1
  9
$DIMSE1
 70
     0
  9
$DIMSE2
 70
     0
  9
$DIMTAD
 70
     1
  9
$DIMZIN
 70
     0
  9
$DIMBLK
  1

  9
$DIMASO
 70
     1
  9
$DIMSHO
 70
     1
  9
$DIMPOST
  1

  9
$DIMAPOST
  1

  9
$DIMALT
 70
     0
  9
$DIMALTD
 70
     3
  9
$DIMALTF
 40
0.0393700787
  9
$DIMLFAC
 40
1.0
  9
$DIMTOFL
 70
     1
  9
$DIMTVP
 40
0.0
  9
$DIMTIX
 70
     0
  9
$DIMSOXD
 70
     0
  9
$DIMSAH
 70
     0
  9
$DIMBLK1
  1

  9
$DIMBLK2
  1

  9
$DIMSTYLE
  2
ISO-25
  9
$DIMCLRD
 70
     0
  9
$DIMCLRE
 70
     0
  9
$DIMCLRT
 70
     0
  9
$DIMTFAC
 40
1.0
  9
$DIMGAP
 40
1.524
  9
$DIMJUST
 70
     0
  9
$DIMSD1
 70
     0
  9
$DIMSD2
 70
     0
  9
$DIMTOLJ
 70
     0
  9
$DIMTZIN
 70
     0
  9
$DIMALTZ
 70
     0
  9
$DIMALTTZ
 70
     0
  9
$DIMUPT
 70
     0
  9
$DIMDEC
 70
     2
  9
$DIMTDEC
 70
     2
  9
$DIMALTU
 70
     2
  9
$DIMALTTD
 70
     3
  9
$DIMTXSTY
  7
Standard
  9
$DIMAUNIT
 70
     0
  9
$DIMADEC
 70
     2
  9
$DIMALTRND
 40
0.0
  9
$DIMAZIN
 70
     0
  9
$DIMDSEP
 70
    44
  9
$DIMATFIT
 70
     3
  9
$DIMFRAC
 70
     0
  9
$DIMLDRBLK
  1

  9
$DIMLUNIT
 70
     2
  9
$DIMLWD
 70
    -2
  9
$DIMLWE
 70
    -2
  9
$DIMTMOVE
 70
     0
  9
$LUNITS
 70
     2
  9
$LUPREC
 70
     2
  9
$SKETCHINC
 40
1.0
  9
$FILLETRAD
 40
10.0
  9
$AUNITS
 70
     0
  9
$AUPREC
 70
     2
  9
$MENU
  1
.
  9
$ELEVATION
 40
0.0
  9
$PELEVATION
 40
0.0
  9
$THICKNESS
 40
0.0
  9
$LIMCHECK
 70
     0
  9
$CHAMFERA
 40
0.0
  9
$CHAMFERB
 40
0.0
  9
$CHAMFERC
 40
0.0
  9
$CHAMFERD
 40
0.0
  9
$SKPOLY
 70
     0
  9
$TDCREATE
 40
2459741.603167083
  9
$TDUCREATE
 40
2459741.478167083
  9
$TDUPDATE
 40
2459741.603167268
  9
$TDUUPDATE
 40
2459741.478167268
  9
$TDINDWG
 40
0.0000000116
  9
$TDUSRTIMER
 40
0.0000000116
  9
$USRTIMER
 70
     1
  9
$ANGBASE
 50
0.0
  9
$ANGDIR
 70
     0
  9
$PDMODE
 70
     0
  9
$PDSIZE
 40
-1.0
  9
$PLINEWID
 40
0.0
  9
$SPLFRAME
 70
     0
  9
$SPLINETYPE
 70
     6
  9
$SPLINESEGS
 70
     8
  9
$HANDSEED
  5
12F
  9
$SURFTAB1
 70
     6
  9
$SURFTAB2
 70
     6
  9
$SURFTYPE
 70
     6
  9
$SURFU
 70
     6
  9
$SURFV
 70
     6
  9
$UCSBASE
  2

  9
$UCSNAME
  2

  9
$UCSORG
 10
0.0
 20
0.0
 30
0.0
  9
$UCSXDIR
 10
1.0
 20
0.0
 30
0.0
  9
$UCSYDIR
 10
0.0
 20
1.0
 30
0.0
  9
$UCSORTHOREF
  2

  9
$UCSORTHOVIEW
 70
     0
  9
$UCSORGTOP
 10
0.0
 20
0.0
 30
0.0
  9
$UCSORGBOTTOM
 10
0.0
 20
0.0
 30
0.0
  9
$UCSORGLEFT
 10
0.0
 20
0.0
 30
0.0
  9
$UCSORGRIGHT
 10
0.0
 20
0.0
 30
0.0
  9
$UCSORGFRONT
 10
0.0
 20
0.0
 30
0.0
  9
$UCSORGBACK
 10
0.0
 20
0.0
 30
0.0
  9
$PUCSBASE
  2

  9
$PUCSNAME
  2

  9
$PUCSORG
 10
0.0
 20
0.0
 30
0.0
  9
$PUCSXDIR
 10
1.0
 20
0.0
 30
0.0
  9
$PUCSYDIR
 10
0.0
 20
1.0
 30
0.0
  9
$PUCSORTHOREF
  2

  9
$PUCSORTHOVIEW
 70
     0
  9
$PUCSORGTOP
 10
0.0
 20
0.0
 30
0.0
  9
$PUCSORGBOTTOM
 10
0.0
 20
0.0
 30
0.0
  9
$PUCSORGLEFT
 10
0.0
 20
0.0
 30
0.0
  9
$PUCSORGRIGHT
 10
0.0
 20
0.0
 30
0.0
  9
$PUCSORGFRONT
 10
0.0
 20
0.0
 30
0.0
  9
$PUCSORGBACK
 10
0.0
 20
0.0
 30
0.0
  9
$USERI1
 70
     0
  9
$USERI2
 70
     0
  9
$USERI3
 70
     0
  9
$USERI4
 70
     0
  9
$USERI5
 70
     0
  9
$USERR1
 40
0.0
  9
$USERR2
 40
0.0
  9
$USERR3
 40
0.0
  9
$USERR4
 40
0.0
  9
$USERR5
 40
0.0
  9
$WORLDVIEW
 70
     1
  9
$SHADEDGE
 70
     3
  9
$SHADEDIF
 70
    70
  9
$TILEMODE
 70
     1
  9
$MAXACTVP
 70
    64
  9
$PINSBASE
 10
0.0
 20
0.0
 30
0.0
  9
$PLIMCHECK
 70
     0
  9
$PEXTMIN
 10
1.0000000000E+20
 20
1.0000000000E+20
 30
1.0000000000E+20
  9
$PEXTMAX
 10
-1.0000000000E+20
 20
-1.0000000000E+20
 30
-1.0000000000E+20
  9
$PLIMMIN
 10
0.0
 20
0.0
  9
$PLIMMAX
 10
420.0
 20
297.0
  9
$UNITMODE
 70
     0
  9
$VISRETAIN
 70
     1
  9
$PLINEGEN
 70
     0
  9
$PSLTSCALE
 70
     1
  9
$TREEDEPTH
 70
  3020
  9
$CMLSTYLE
  2
Standard
  9
$CMLJUST
 70
     0
  9
$CMLSCALE
 40
20.0
  9
$PROXYGRAPHICS
 70
     1
  9
$MEASUREMENT
 70
     1
  9
$CELWEIGHT
370
    -1
  9
$ENDCAPS
280
     0
  9
$JOINSTYLE
280
     0
  9
$LWDISPLAY
290
     1
  9
$INSUNITS
 70
     4
  9
$HYPERLINKBASE
  1

  9
$STYLESHEET
  1

  9
$XEDIT
290
     1
  9
$CEPSNTYPE
380
     0
  9
$PSTYLEMODE
290
     1
  9
$FINGERPRINTGUID
  2
{19ff3836-5af4-4c90-9c7b-87cc189429f5}
  9
$VERSIONGUID
  2
{FAEB1C32-E019-11D5-929B-00C0DF256EC4}
  9
$EXTNAMES
290
     1
  9
$PSVPSCALE
 40
0.0
  9
$OLESTARTUP
290
     0
  0
ENDSEC
  0
SECTION
  2
CLASSES
  0
CLASS
  1
ACDBDICTIONARYWDFLT
  2
AcDbDictionaryWithDefault
  3
ObjectDBX Classes
 90
        0
280
     0
281
     0
  0
CLASS
  1
VISUALSTYLE
  2
AcDbVisualStyle
  3
ObjectDBX Classes
 90
     4095
280
     0
281
     0
  0
CLASS
  1
MATERIAL
  2
AcDbMaterial
  3
ObjectDBX Classes
 90
     1153
280
     0
281
     0
  0
CLASS
  1
SCALE
  2
AcDbScale
  3
ObjectDBX Classes
 90
     1153
280
     0
281
     0
  0
CLASS
  1
TABLESTYLE
  2
AcDbTableStyle
  3
ObjectDBX Classes
 90
     4095
280
     0
281
     0
  0
CLASS
  1
MLEADERSTYLE
  2
AcDbMLeaderStyle
  3
ACDB_MLEADERSTYLE_CLASS
 90
     4095
280
     0
281
     0
  0
CLASS
  1
SUN
  2
AcDbSun
  3
SCENEOE
 90
     1153
280
     0
281
     0
  0
CLASS
  1
ACDBPLACEHOLDER
  2
AcDbPlaceHolder
  3
ObjectDBX Classes
 90
        0
280
     0
281
     0
  0
CLASS
  1
LAYOUT
  2
AcDbLayout
  3
ObjectDBX Classes
 90
        0
280
     0
281
     0
  0
ENDSEC
  0
SECTION
  2
TABLES
  0
TABLE
  2
VPORT
  5
8
330
0
100
AcDbSymbolTable
 70
     1
  0
VPORT
  5
29
330
8
100
AcDbSymbolTableRecord
100
AcDbViewportTableRecord
  2
*Active
 70
     0
 10
0.0
 20
0.0
 11
1.0
 21
1.0
 12
139.7
 22
107.95
 13
0.0
 23
0.0
 14
10.0
 24
10.0
 15
10.0
 25
10.0
 16
0.0
 26
0.0
 36
1.0
 17
0.0
 27
0.0
 37
0.0
 40
215.9
 41
1.2941176471
 42
50.0
 43
0.0
 44
0.0
 50
0.0
 51
0.0
 71
     0
 72
  2000
 73
     1
 74
     3
 75
     0
 76
     0
 77
     0
 78
     0
281
     0
 65
     1
110
0.0
120
0.0
130
0.0
111
1.0
121
0.0
131
0.0
112
0.0
122
1.0
132
0.0
 79
     0
146
0.0
  0
ENDTAB
  0
TABLE
  2
LTYPE
  5
5
330
0
100
AcDbSymbolTable
 70
     6
  0
LTYPE
  5
14
330
5
100
AcDbSymbolTableRecord
100
AcDbLinetypeTableRecord
  2
ByBlock
 70
     0
  3

 72
    65
 73
     0
 40
0.0
  0
LTYPE
  5
15
330
5
100
AcDbSymbolTableRecord
100
AcDbLinetypeTableRecord
  2
ByLayer
 70
     0
  3

 72
    65
 73
     0
 40
0.0
  0
LTYPE
  5
16
330
5
100
AcDbSymbolTableRecord
100
AcDbLinetypeTableRecord
  2
Continuous
 70
     0
  3
Solid line
 72
    65
 73
     0
 40
0.0
  0
LTYPE
  5
6E
330
5
100
AcDbSymbolTableRecord
100
AcDbLinetypeTableRecord
  2
HIDDEN
 70
     0
  3
Hidden __ __ __ __ __ __ __ __ __ __ __ __ __ __
 72
    65
 73
     2
 40
1.905
 49
1.27
 74
     0
 49
-0.635
 74
     0
  0
LTYPE
  5
6F
330
5
100
AcDbSymbolTableRecord
100
AcDbLinetypeTableRecord
  2
PHANTOM
 70
     0
  3
Phantom ______  __  __  ______  __  __  ______
 72
    65
 73
     6
 40
12.7
 49
6.35
 74
     0
 49
-1.27
 74
     0
 49
1.27
 74
     0
 49
-1.27
 74
     0
 49
1.27
 74
     0
 49
-1.27
 74
     0
  0
LTYPE
  5
70
330
5
100
AcDbSymbolTableRecord
100
AcDbLinetypeTableRecord
  2
CENTER
 70
     0
  3
Center ____ _ ____ _ ____ _ ____ _ ____ _ ____
 72
    65
 73
     4
 40
10.16
 49
6.35
 74
     0
 49
-1.27
 74
     0
 49
1.27
 74
     0
 49
-1.27
 74
     0
  0
LTYPE
  5
71
330
5
100
AcDbSymbolTableRecord
100
AcDbLinetypeTableRecord
  2
CENTERX2
 70
     0
  3
Center (2x) ________  __  ________  __  _____
 72
    65
 73
     4
 40
20.32
 49
12.7
 74
     0
 49
-2.54
 74
     0
 49
2.54
 74
     0
 49
-2.54
 74
     0
  0
LTYPE
  5
72
330
5
100
AcDbSymbolTableRecord
100
AcDbLinetypeTableRecord
  2
DOT2
 70
     0
  3
Dot (.5x) ........................................
 72
    65
 73
     2
 40
0.635
 49
0.0
 74
     0
 49
-0.635
 74
     0
  0
ENDTAB
  0
TABLE
  2
LAYER
  5
2
330
0
100
AcDbSymbolTable
 70
    17
  0
LAYER
  5
10
330
2
100
AcDbSymbolTableRecord
100
AcDbLayerTableRecord
  2
0
 70
     0
 62
     7
  6
Continuous
370
    -3
390
F
  0
LAYER
  5
73
330
2
100
AcDbSymbolTableRecord
100
AcDbLayerTableRecord
  2
FORMAT
 70
     0
 62
     7
  6
Continuous
370
    -3
390
F
  0
LAYER
  5
74
330
2
100
AcDbSymbolTableRecord
100
AcDbLayerTableRecord
  2
YARDIMCI_GEOMETRI
 70
     0
 62
    -6
  6
Continuous
290
     0
370
    -3
390
F
  0
LAYER
  5
75
330
2
100
AcDbSymbolTableRecord
100
AcDbLayerTableRecord
  2
SAYFA_CERCEVESI
 70
     0
 62
     7
  6
Continuous
370
    25
390
F
  0
LAYER
  5
76
330
2
100
AcDbSymbolTableRecord
100
AcDbLayerTableRecord
  2
ANTET
 70
     0
 62
     7
  6
Continuous
370
    -3
390
F
  0
LAYER
  5
77
330
2
100
AcDbSymbolTableRecord
100
AcDbLayerTableRecord
  2
OLCU
 70
     0
 62
   150
  6
Continuous
370
    -3
390
F
  0
LAYER
  5
78
330
2
100
AcDbSymbolTableRecord
100
AcDbLayerTableRecord
  2
METIN
 70
     0
 62
    96
  6
Continuous
370
    -3
390
F
  0
LAYER
  5
79
330
2
100
AcDbSymbolTableRecord
100
AcDbLayerTableRecord
  2
BALON
 70
     0
 62
     5
  6
Continuous
370
    -3
390
F
  0
LAYER
  5
7A
330
2
100
AcDbSymbolTableRecord
100
AcDbLayerTableRecord
  2
VURGU
 70
     0
 62
     7
  6
Continuous
370
    -3
390
F
  0
LAYER
  5
7B
330
2
100
AcDbSymbolTableRecord
100
AcDbLayerTableRecord
  2
SILIK
 70
     0
 62
     7
  6
Continuous
370
    -3
390
F
  0
LAYER
  5
7C
330
2
100
AcDbSymbolTableRecord
100
AcDbLayerTableRecord
  2
MODEL
 70
     0
 62
     7
  6
Continuous
370
    -3
390
F
  0
LAYER
  5
7D
330
2
100
AcDbSymbolTableRecord
100
AcDbLayerTableRecord
  2
DETAYLANDıRMA
 70
     0
 62
   190
  6
Continuous
370
    -3
390
F
  0
LAYER
  5
7E
330
2
100
AcDbSymbolTableRecord
100
AcDbLayerTableRecord
  2
TOLERANS
 70
     0
 62
   230
  6
Continuous
370
    -3
390
F
  0
LAYER
  5
7F
330
2
100
AcDbSymbolTableRecord
100
AcDbLayerTableRecord
  2
MERKEZ_CIZGILERI
 70
     0
 62
    30
  6
Continuous
370
    -3
390
F
  0
LAYER
  5
80
330
2
100
AcDbSymbolTableRecord
100
AcDbLayerTableRecord
  2
KESIT-DETAY_CIZGILERI
 70
     0
 62
     7
  6
Continuous
370
    -3
390
F
  0
LAYER
  5
81
330
2
100
AcDbSymbolTableRecord
100
AcDbLayerTableRecord
  2
\U+041E\U+0421\U+0415\U+0412\U+042B\U+0415
 70
     0
 62
     7
  6
Continuous
370
    -3
390
F
  0
LAYER
  5
82
330
2
100
AcDbSymbolTableRecord
100
AcDbLayerTableRecord
  2
\U+0412\U+041E\U+0414\U+042F\U+041D\U+042B\U+0415_\U+0417\U+041D\U+0410\U+041A\U+0418
 70
     0
 62
    11
  6
Continuous
370
    -3
390
F
  0
ENDTAB
  0
TABLE
  2
STYLE
  5
3
330
0
100
AcDbSymbolTable
 70
     1
  0
STYLE
  5
11
330
3
100
AcDbSymbolTableRecord
100
AcDbTextStyleTableRecord
  2
Standard
 70
     0
 40
0.0
 41
1.0
 50
0.0
 71
     0
 42
3.5
  3
txt
  4

  0
ENDTAB
  0
TABLE
  2
VIEW
  5
6
330
0
100
AcDbSymbolTable
 70
     0
  0
ENDTAB
  0
TABLE
  2
UCS
  5
7
330
0
100
AcDbSymbolTable
 70
     0
  0
ENDTAB
  0
TABLE
  2
APPID
  5
9
330
0
100
AcDbSymbolTable
 70
     1
  0
APPID
  5
12
330
9
100
AcDbSymbolTableRecord
100
AcDbRegAppTableRecord
  2
ACAD
 70
     0
  0
ENDTAB
  0
TABLE
  2
DIMSTYLE
  5
A
330
0
100
AcDbSymbolTable
 70
     1
100
AcDbDimStyleTable
  0
DIMSTYLE
105
27
330
A
100
AcDbSymbolTableRecord
100
AcDbDimStyleTableRecord
  2
ISO-25
 70
     0
 41
2.5
 42
0.625
 43
3.75
 44
1.25
 73
     0
 74
     0
 77
     1
 78
     8
140
2.5
141
2.5
143
0.0393700787
147
0.625
171
     3
172
     1
178
     0
271
     2
272
     2
274
     3
278
    44
283
     0
284
     8
340
11
  0
ENDTAB
  0
TABLE
  2
BLOCK_RECORD
  5
1
330
0
100
AcDbSymbolTable
 70
     5
  0
BLOCK_RECORD
  5
1F
330
1
100
AcDbSymbolTableRecord
100
AcDbBlockTableRecord
  2
*Model_Space
340
22
  0
BLOCK_RECORD
  5
1B
330
1
100
AcDbSymbolTableRecord
100
AcDbBlockTableRecord
  2
*Paper_Space
340
1E
  0
BLOCK_RECORD
  5
23
330
1
100
AcDbSymbolTableRecord
100
AcDbBlockTableRecord
  2
*Paper_Space0
340
26
  0
BLOCK_RECORD
  5
AA
330
1
100
AcDbSymbolTableRecord
100
AcDbBlockTableRecord
  2
SW_CENTERMARKSYMBOL_0
340
0
102
{BLKREFS
331
B5
102
}
  0
BLOCK_RECORD
  5
C7
330
1
100
AcDbSymbolTableRecord
100
AcDbBlockTableRecord
  2
SW_CENTERMARKSYMBOL_1
340
0
102
{BLKREFS
331
D2
102
}
  0
BLOCK_RECORD
  5
EB
330
1
100
AcDbSymbolTableRecord
100
AcDbBlockTableRecord
  2
SW_CENTERMARKSYMBOL_2
340
0
102
{BLKREFS
331
F6
102
}
  0
BLOCK_RECORD
  5
107
330
1
100
AcDbSymbolTableRecord
100
AcDbBlockTableRecord
  2
SW_CENTERMARKSYMBOL_3
340
0
102
{BLKREFS
331
112
102
}
  0
ENDTAB
  0
ENDSEC
  0
SECTION
  2
BLOCKS
  0
BLOCK
  5
20
330
1F
100
AcDbEntity
  8
0
100
AcDbBlockBegin
  2
*Model_Space
 70
     0
 10
0.0
 20
0.0
 30
0.0
  3
*Model_Space
  1

  0
ENDBLK
  5
21
330
1F
100
AcDbEntity
  8
0
100
AcDbBlockEnd
  0
BLOCK
  5
1C
330
1B
100
AcDbEntity
 67
     1
  8
0
100
AcDbBlockBegin
  2
*Paper_Space
 70
     0
 10
0.0
 20
0.0
 30
0.0
  3
*Paper_Space
  1

  0
ENDBLK
  5
1D
330
1B
100
AcDbEntity
 67
     1
  8
0
100
AcDbBlockEnd
  0
BLOCK
  5
24
330
23
100
AcDbEntity
  8
0
100
AcDbBlockBegin
  2
*Paper_Space0
 70
     0
 10
0.0
 20
0.0
 30
0.0
  3
*Paper_Space0
  1

  0
ENDBLK
  5
25
330
23
100
AcDbEntity
  8
0
100
AcDbBlockEnd
  0
BLOCK
  5
AB
330
AA
100
AcDbEntity
  8
0
100
AcDbBlockBegin
  2
SW_CENTERMARKSYMBOL_0
 70
     0
 10
0.0
 20
0.0
 30
0.0
  3
SW_CENTERMARKSYMBOL_0
  1

  0
LINE
  5
AD
330
AA
100
AcDbEntity
  8
FORMAT
 62
     0
100
AcDbLine
 10
0.0
 20
0.0
 30
0.0
 11
0.0
 21
2.5
 31
0.0
  0
LINE
  5
AE
330
AA
100
AcDbEntity
  8
FORMAT
 62
     0
100
AcDbLine
 10
0.0
 20
0.0
 30
0.0
 11
-2.5
 21
0.0
 31
0.0
  0
LINE
  5
AF
330
AA
100
AcDbEntity
  8
FORMAT
 62
     0
100
AcDbLine
 10
0.0
 20
0.0
 30
0.0
 11
0.0
 21
-2.5
 31
0.0
  0
LINE
  5
B0
330
AA
100
AcDbEntity
  8
FORMAT
 62
     0
100
AcDbLine
 10
0.0
 20
0.0
 30
0.0
 11
2.5
 21
0.0
 31
0.0
  0
LINE
  5
B1
330
AA
100
AcDbEntity
  8
FORMAT
 62
     0
100
AcDbLine
 10
0.0
 20
5.0
 30
0.0
 11
0.0
 21
34.0
 31
0.0
  0
LINE
  5
B2
330
AA
100
AcDbEntity
  8
FORMAT
 62
     0
100
AcDbLine
 10
-5.0
 20
0.0
 30
0.0
 11
-34.0
 21
0.0
 31
0.0
  0
LINE
  5
B3
330
AA
100
AcDbEntity
  8
FORMAT
 62
     0
100
AcDbLine
 10
0.0
 20
-5.0
 30
0.0
 11
0.0
 21
-34.0
 31
0.0
  0
LINE
  5
B4
330
AA
100
AcDbEntity
  8
FORMAT
 62
     0
100
AcDbLine
 10
5.0
 20
0.0
 30
0.0
 11
34.0
 21
0.0
 31
0.0
  0
ENDBLK
  5
AC
330
AA
100
AcDbEntity
  8
0
100
AcDbBlockEnd
  0
BLOCK
  5
C8
330
C7
100
AcDbEntity
  8
0
100
AcDbBlockBegin
  2
SW_CENTERMARKSYMBOL_1
 70
     0
 10
0.0
 20
0.0
 30
0.0
  3
SW_CENTERMARKSYMBOL_1
  1

  0
LINE
  5
CA
330
C7
100
AcDbEntity
  8
FORMAT
 62
     0
100
AcDbLine
 10
0.0
 20
0.0
 30
0.0
 11
0.0
 21
2.5
 31
0.0
  0
LINE
  5
CB
330
C7
100
AcDbEntity
  8
FORMAT
 62
     0
100
AcDbLine
 10
0.0
 20
0.0
 30
0.0
 11
-2.5
 21
0.0
 31
0.0
  0
LINE
  5
CC
330
C7
100
AcDbEntity
  8
FORMAT
 62
     0
100
AcDbLine
 10
0.0
 20
0.0
 30
0.0
 11
0.0
 21
-2.5
 31
0.0
  0
LINE
  5
CD
330
C7
100
AcDbEntity
  8
FORMAT
 62
     0
100
AcDbLine
 10
0.0
 20
0.0
 30
0.0
 11
2.5
 21
0.0
 31
0.0
  0
LINE
  5
CE
330
C7
100
AcDbEntity
  8
FORMAT
 62
     0
100
AcDbLine
 10
0.0
 20
5.0
 30
0.0
 11
0.0
 21
34.0
 31
0.0
  0
LINE
  5
CF
330
C7
100
AcDbEntity
  8
FORMAT
 62
     0
100
AcDbLine
 10
-5.0
 20
0.0
 30
0.0
 11
-34.0
 21
0.0
 31
0.0
  0
LINE
  5
D0
330
C7
100
AcDbEntity
  8
FORMAT
 62
     0
100
AcDbLine
 10
0.0
 20
-5.0
 30
0.0
 11
0.0
 21
-34.0
 31
0.0
  0
LINE
  5
D1
330
C7
100
AcDbEntity
  8
FORMAT
 62
     0
100
AcDbLine
 10
5.0
 20
0.0
 30
0.0
 11
34.0
 21
0.0
 31
0.0
  0
ENDBLK
  5
C9
330
C7
100
AcDbEntity
  8
0
100
AcDbBlockEnd
  0
BLOCK
  5
EC
330
EB
100
AcDbEntity
  8
0
100
AcDbBlockBegin
  2
SW_CENTERMARKSYMBOL_2
 70
     0
 10
0.0
 20
0.0
 30
0.0
  3
SW_CENTERMARKSYMBOL_2
  1

  0
LINE
  5
EE
330
EB
100
AcDbEntity
  8
FORMAT
 62
     0
100
AcDbLine
 10
0.0
 20
0.0
 30
0.0
 11
0.0
 21
2.5
 31
0.0
  0
LINE
  5
EF
330
EB
100
AcDbEntity
  8
FORMAT
 62
     0
100
AcDbLine
 10
0.0
 20
0.0
 30
0.0
 11
-2.5
 21
0.0
 31
0.0
  0
LINE
  5
F0
330
EB
100
AcDbEntity
  8
FORMAT
 62
     0
100
AcDbLine
 10
0.0
 20
0.0
 30
0.0
 11
0.0
 21
-2.5
 31
0.0
  0
LINE
  5
F1
330
EB
100
AcDbEntity
  8
FORMAT
 62
     0
100
AcDbLine
 10
0.0
 20
0.0
 30
0.0
 11
2.5
 21
0.0
 31
0.0
  0
LINE
  5
F2
330
EB
100
AcDbEntity
  8
FORMAT
 62
     0
100
AcDbLine
 10
0.0
 20
5.0
 30
0.0
 11
0.0
 21
34.0
 31
0.0
  0
LINE
  5
F3
330
EB
100
AcDbEntity
  8
FORMAT
 62
     0
100
AcDbLine
 10
-5.0
 20
0.0
 30
0.0
 11
-34.0
 21
0.0
 31
0.0
  0
LINE
  5
F4
330
EB
100
AcDbEntity
  8
FORMAT
 62
     0
100
AcDbLine
 10
0.0
 20
-5.0
 30
0.0
 11
0.0
 21
-34.0
 31
0.0
  0
LINE
  5
F5
330
EB
100
AcDbEntity
  8
FORMAT
 62
     0
100
AcDbLine
 10
5.0
 20
0.0
 30
0.0
 11
34.0
 21
0.0
 31
0.0
  0
ENDBLK
  5
ED
330
EB
100
AcDbEntity
  8
0
100
AcDbBlockEnd
  0
BLOCK
  5
108
330
107
100
AcDbEntity
  8
0
100
AcDbBlockBegin
  2
SW_CENTERMARKSYMBOL_3
 70
     0
 10
0.0
 20
0.0
 30
0.0
  3
SW_CENTERMARKSYMBOL_3
  1

  0
LINE
  5
10A
330
107
100
AcDbEntity
  8
FORMAT
 62
     0
100
AcDbLine
 10
0.0
 20
0.0
 30
0.0
 11
0.0
 21
2.5
 31
0.0
  0
LINE
  5
10B
330
107
100
AcDbEntity
  8
FORMAT
 62
     0
100
AcDbLine
 10
0.0
 20
0.0
 30
0.0
 11
-2.5
 21
0.0
 31
0.0
  0
LINE
  5
10C
330
107
100
AcDbEntity
  8
FORMAT
 62
     0
100
AcDbLine
 10
0.0
 20
0.0
 30
0.0
 11
0.0
 21
-2.5
 31
0.0
  0
LINE
  5
10D
330
107
100
AcDbEntity
  8
FORMAT
 62
     0
100
AcDbLine
 10
0.0
 20
0.0
 30
0.0
 11
2.5
 21
0.0
 31
0.0
  0
LINE
  5
10E
330
107
100
AcDbEntity
  8
FORMAT
 62
     0
100
AcDbLine
 10
0.0
 20
5.0
 30
0.0
 11
0.0
 21
34.0
 31
0.0
  0
LINE
  5
10F
330
107
100
AcDbEntity
  8
FORMAT
 62
     0
100
AcDbLine
 10
-5.0
 20
0.0
 30
0.0
 11
-34.0
 21
0.0
 31
0.0
  0
LINE
  5
110
330
107
100
AcDbEntity
  8
FORMAT
 62
     0
100
AcDbLine
 10
0.0
 20
-5.0
 30
0.0
 11
0.0
 21
-34.0
 31
0.0
  0
LINE
  5
111
330
107
100
AcDbEntity
  8
FORMAT
 62
     0
100
AcDbLine
 10
5.0
 20
0.0
 30
0.0
 11
34.0
 21
0.0
 31
0.0
  0
ENDBLK
  5
109
330
107
100
AcDbEntity
  8
0
100
AcDbBlockEnd
  0
ENDSEC
  0
SECTION
  2
ENTITIES
  0
LINE
  5
83
330
1F
100
AcDbEntity
  8
0
  6
Continuous
 62
     7
370
    25
100
AcDbLine
 10
155.8986957649
 20
183.042610085
 30
0.0
 11
114.7874766892
 21
141.9313910092
 31
0.0
  0
LINE
  5
84
330
1F
100
AcDbEntity
  8
0
  6
Continuous
 62
     7
370
    25
100
AcDbLine
 10
159.3352039039
 20
97.3836637944
 30
0.0
 11
200.4464229797
 21
138.4948828702
 31
0.0
  0
ARC
  5
85
330
1F
100
AcDbEntity
  8
0
  6
Continuous
 62
     7
370
    25
100
AcDbCircle
 10
161.8100776381
 20
94.9087900603
 30
0.0
 40
3.5
100
AcDbArc
 50
135.0
 51
180.0
  0
ARC
  5
86
330
1F
100
AcDbEntity
  8
0
  6
Continuous
 62
     7
370
    25
100
AcDbCircle
 10
161.8100776381
 20
94.9087900603
 30
0.0
 40
66.50000000000001
100
AcDbArc
 50
135.0
 51
180.0
  0
LINE
  5
87
330
1F
100
AcDbEntity
  8
0
  6
Continuous
 62
     7
370
    25
100
AcDbLine
 10
95.3100776381
 20
94.9087900603
 30
0.0
 11
95.3100776381
 21
36.7687464776
 31
0.0
  0
LINE
  5
88
330
1F
100
AcDbEntity
  8
0
  6
Continuous
 62
     7
370
    25
100
AcDbLine
 10
158.3100776381
 20
36.7687464776
 30
0.0
 11
158.3100776381
 21
94.9087900603
 31
0.0
  0
CIRCLE
  5
89
330
1F
100
AcDbEntity
  8
0
  6
Continuous
 62
     7
370
    25
100
AcDbCircle
 10
126.8100776381
 20
46.7687464776
 30
0.0
 40
5.0
  0
CIRCLE
  5
8A
330
1F
100
AcDbEntity
  8
0
  6
Continuous
 62
     7
370
    25
100
AcDbCircle
 10
126.8100776381
 20
46.7687464776
 30
0.0
 40
7.0
  0
CIRCLE
  5
8B
330
1F
100
AcDbEntity
  8
0
  6
Continuous
 62
     7
370
    25
100
AcDbCircle
 10
171.1014915605
 20
153.6976786657
 30
0.0
 40
7.000000000000028
  0
CIRCLE
  5
8C
330
1F
100
AcDbEntity
  8
0
  6
Continuous
 62
     7
370
    25
100
AcDbCircle
 10
171.1014915605
 20
153.6976786657
 30
0.0
 40
5.000000000000028
  0
LINE
  5
8D
330
1F
100
AcDbEntity
  8
0
  6
Continuous
 62
     7
370
    25
100
AcDbLine
 10
178.1725593723
 20
160.7687464776
 30
0.0
 11
200.4464229797
 21
138.4948828702
 31
0.0
  0
LINE
  5
8E
330
1F
100
AcDbEntity
  8
0
  6
Continuous
 62
     7
370
    25
100
AcDbLine
 10
155.8986957649
 20
183.042610085
 30
0.0
 11
178.1725593723
 21
160.7687464776
 31
0.0
  0
LINE
  5
8F
330
1F
100
AcDbEntity
  8
0
  6
Continuous
 62
     7
370
    25
100
AcDbLine
 10
126.8100776381
 20
36.7687464776
 30
0.0
 11
158.3100776381
 21
36.7687464776
 31
0.0
  0
LINE
  5
90
330
1F
100
AcDbEntity
  8
0
  6
Continuous
 62
     7
370
    25
100
AcDbLine
 10
95.3100776381
 20
36.7687464776
 30
0.0
 11
126.8100776381
 21
36.7687464776
 31
0.0
  0
LINE
  5
91
330
1F
100
AcDbEntity
  8
0
  6
Continuous
 62
     1
370
    25
100
AcDbLine
 10
137.0613402965
 20
119.6575274018
 30
0.0
 11
159.3352039039
 21
97.3836637944
 31
0.0
  0
LINE
  5
92
330
1F
100
AcDbEntity
  8
0
  6
Continuous
 62
     1
370
    25
100
AcDbLine
 10
114.7874766892
 20
141.9313910092
 30
0.0
 11
137.0613402965
 21
119.6575274018
 31
0.0
  0
LINE
  5
93
330
1F
100
AcDbEntity
  8
0
  6
Continuous
 62
     1
370
    25
100
AcDbLine
 10
126.8100776381
 20
94.9087900603
 30
0.0
 11
158.3100776381
 21
94.9087900603
 31
0.0
  0
LINE
  5
94
330
1F
100
AcDbEntity
  8
0
  6
Continuous
 62
     1
370
    25
100
AcDbLine
 10
95.3100776381
 20
94.9087900603
 30
0.0
 11
126.8100776381
 21
94.9087900603
 31
0.0
  0
LINE
  5
95
330
1F
100
AcDbEntity
  8
0
  6
Continuous
 62
     7
370
    25
100
AcDbLine
 10
-49.9543662442
 20
146.6976786657
 30
0.0
 11
-49.9543662442
 21
119.6575274018
 31
0.0
  0
LINE
  5
96
330
1F
100
AcDbEntity
  8
0
  6
Continuous
 62
     7
370
    25
100
AcDbLine
 10
-49.9543662442
 20
160.7687464776
 30
0.0
 11
-49.9543662442
 21
158.6295097358
 31
0.0
  0
LINE
  5
97
330
1F
100
AcDbEntity
  8
0
  6
Continuous
 62
     7
370
    25
100
AcDbLine
 10
13.0456337558
 20
119.6575274018
 30
0.0
 11
13.0456337558
 21
160.7687464776
 31
0.0
  0
LINE
  5
98
330
1F
100
AcDbEntity
  8
0
  6
Continuous
 62
     7
370
    25
100
AcDbLine
 10
-49.9543662442
 20
160.6976786657
 30
0.0
 11
-64.9543662442
 21
160.6976786657
 31
0.0
  0
LINE
  5
99
330
1F
100
AcDbEntity
  8
0
  6
Continuous
 62
     7
370
    25
100
AcDbLine
 10
-64.9543662442
 20
146.6976786657
 30
0.0
 11
-49.563088564
 21
146.6976786657
 31
0.0
  0
LINE
  5
9A
330
1F
100
AcDbEntity
  8
0
  6
Continuous
 62
     7
370
    25
100
AcDbLine
 10
-49.9543662442
 20
119.6575274018
 30
0.0
 11
-49.9543662442
 21
94.9087900603
 31
0.0
  0
LINE
  5
9B
330
1F
100
AcDbEntity
  8
0
  6
Continuous
 62
     7
370
    25
100
AcDbLine
 10
13.0456337558
 20
94.9087900603
 30
0.0
 11
13.0456337558
 21
119.6575274018
 31
0.0
  0
LINE
  5
9C
330
1F
100
AcDbEntity
  8
0
  6
Continuous
 62
     7
370
    25
100
AcDbLine
 10
-49.9543662442
 20
39.792866569
 30
0.0
 11
-49.9543662442
 21
36.7687464776
 31
0.0
  0
LINE
  5
9D
330
1F
100
AcDbEntity
  8
0
  6
Continuous
 62
     7
370
    25
100
AcDbLine
 10
-49.9543662442
 20
94.9087900603
 30
0.0
 11
-49.9543662442
 21
53.7555552828
 31
0.0
  0
LINE
  5
9E
330
1F
100
AcDbEntity
  8
0
  6
Continuous
 62
     7
370
    25
100
AcDbLine
 10
13.0456337558
 20
36.7687464776
 30
0.0
 11
13.0456337558
 21
94.9087900603
 31
0.0
  0
LINE
  5
9F
330
1F
100
AcDbEntity
  8
0
  6
Continuous
 62
     7
370
    25
100
AcDbLine
 10
-49.9514536121
 20
53.7687464776
 30
0.0
 11
-64.9543662442
 21
53.7687464776
 31
0.0
  0
LINE
  5
A0
330
1F
100
AcDbEntity
  8
0
  6
Continuous
 62
     7
370
    25
100
AcDbLine
 10
-64.9543662442
 20
39.7687464776
 30
0.0
 11
-49.9490186928
 21
39.7687464776
 31
0.0
  0
LWPOLYLINE
  5
A1
330
1F
100
AcDbEntity
  8
0
  6
Continuous
 62
     7
370
    25
100
AcDbPolyline
 90
       97
 70
   128
 43
0.0
 10
-49.9543662442
 20
160.7687464776
 10
-49.8869223263
 20
159.3119660976
 10
-49.6848793775
 20
157.8614238749
 10
-49.349102577
 20
156.4233312539
 10
-48.8810297724
 20
155.003846368
 10
-48.2826653233
 20
153.6090476694
 10
-47.5565715184
 20
152.2449079003
 10
-46.7058576025
 20
150.9172685166
 10
-45.7341664635
 20
149.6318146739
 10
-44.6456590318
 20
148.394050883
 10
-43.4449964634
 20
147.2092774384
 10
-42.1373201798
 20
146.082567722
 10
-40.7282298516
 20
145.0187464776
 10
-39.2237594199
 20
144.0223691512
 10
-37.630351258
 20
143.0977023835
 10
-35.9548285844
 20
142.2487057395
 10
-34.2043662442
 20
141.4790147532
 10
-32.3864599861
 20
140.7919253595
 10
-30.5088943637
 20
140.1903797808
 10
-28.5797094013
 20
139.6769539275
 10
-26.607166165
 20
139.253846368
 10
-24.5997113878
 20
138.9228689138
 10
-22.5659412992
 20
138.6854388611
 10
-20.514564815
 20
138.542572922
 10
-18.4543662442
 20
138.4948828702
 10
-16.3941676735
 20
138.542572922
 10
-14.3427911893
 20
138.6854388611
 10
-12.3090211007
 20
138.9228689138
 10
-10.3015663235
 20
139.253846368
 10
-8.3290230872
 20
139.6769539275
 10
-6.3998381247
 20
140.1903797808
 10
-4.5222725023
 20
140.7919253595
 10
-2.7043662442
 20
141.4790147532
 10
-0.9539039041
 20
142.2487057395
 10
0.7216187695
 20
143.0977023835
 10
2.3150269314
 20
144.0223691512
 10
3.8194973631
 20
145.0187464776
 10
5.2285876913
 20
146.082567722
 10
6.5362639749
 20
147.2092774384
 10
7.7369265433
 20
148.394050883
 10
8.825433975
 20
149.6318146739
 10
9.797125114
 20
150.9172685166
 10
10.6478390299
 20
152.2449079003
 10
11.3739328348
 20
153.6090476694
 10
11.9722972839
 20
155.003846368
 10
12.4403700885
 20
156.4233312539
 10
12.776146889
 20
157.8614238749
 10
12.9781898378
 20
159.3119660976
 10
13.0456337558
 20
160.7687464776
 10
12.9781898378
 20
162.2255268576
 10
12.776146889
 20
163.6760690803
 10
12.4403700885
 20
165.1141617013
 10
11.9722972839
 20
166.5336465872
 10
11.3739328348
 20
167.9284452858
 10
10.6478390299
 20
169.2925850549
 10
9.797125114
 20
170.6202244386
 10
8.825433975
 20
171.9056782813
 10
7.7369265433
 20
173.1434420722
 10
6.5362639749
 20
174.3282155168
 10
5.2285876913
 20
175.4549252332
 10
3.8194973631
 20
176.5187464776
 10
2.3150269314
 20
177.515123804
 10
0.7216187695
 20
178.4397905717
 10
-0.9539039041
 20
179.2887872157
 10
-2.7043662442
 20
180.058478202
 10
-4.5222725024
 20
180.7455675957
 10
-6.3998381247
 20
181.3471131744
 10
-8.3290230872
 20
181.8605390277
 10
-10.3015663235
 20
182.2836465872
 10
-12.3090211007
 20
182.6146240414
 10
-14.3427911893
 20
182.8520540941
 10
-16.3941676735
 20
182.9949200332
 10
-18.4543662442
 20
183.042610085
 10
-20.514564815
 20
182.9949200332
 10
-22.5659412992
 20
182.8520540941
 10
-24.5997113878
 20
182.6146240414
 10
-26.607166165
 20
182.2836465872
 10
-28.5797094013
 20
181.8605390277
 10
-30.5088943637
 20
181.3471131744
 10
-32.3864599861
 20
180.7455675957
 10
-34.2043662442
 20
180.058478202
 10
-35.9548285844
 20
179.2887872157
 10
-37.630351258
 20
178.4397905717
 10
-39.2237594199
 20
177.515123804
 10
-40.7282298516
 20
176.5187464776
 10
-42.1373201798
 20
175.4549252332
 10
-43.4449964634
 20
174.3282155168
 10
-44.6456590318
 20
173.1434420722
 10
-45.7341664635
 20
171.9056782813
 10
-46.7058576025
 20
170.6202244386
 10
-47.5565715184
 20
169.2925850549
 10
-48.2826653233
 20
167.9284452858
 10
-48.8810297724
 20
166.5336465872
 10
-49.349102577
 20
165.1141617013
 10
-49.6848793775
 20
163.6760690803
 10
-49.8869223263
 20
162.2255268576
 10
-49.9543662442
 20
160.7687464776
  0
LWPOLYLINE
  5
A2
330
1F
100
AcDbEntity
  8
0
  6
Continuous
 62
     7
370
    25
100
AcDbPolyline
 90
       86
 70
   128
 43
0.0
 10
-43.4543662442
 20
160.7687464776
 10
-43.3860955789
 20
162.0742870522
 10
-43.1816564535
 20
163.372697217
 10
-42.8421654438
 20
164.6568855057
 10
-42.3694767318
 20
165.9198381274
 10
-41.7661719794
 20
167.1546572728
 10
-41.0355462279
 20
168.3545987878
 10
-40.1815899019
 20
169.5131090081
 10
-39.2089670146
 20
170.6238605526
 10
-38.1229896951
 20
171.6807868814
 10
-36.9295891748
 20
172.6781154296
 10
-35.6352833935
 20
173.6103991343
 10
-34.2471414006
 20
174.4725461854
 10
-32.7727447463
 20
175.2598478345
 10
-31.2201460738
 20
175.9680041132
 10
-29.5978251387
 20
176.5931473173
 10
-27.9146424953
 20
177.1318631314
 10
-26.1797911036
 20
177.5812092767
 10
-24.4027461203
 20
177.9387315802
 10
-22.5932131489
 20
178.2024773792
 10
-20.7610752308
 20
178.3710061855
 10
-18.9163388682
 20
178.4433975533
 10
-17.0690793713
 20
178.4192561059
 10
-15.229385831
 20
178.2987136957
 10
-13.4073060153
 20
178.0824286834
 10
-11.6127914924
 20
177.7715823428
 10
-9.8556432784
 20
177.3678724087
 10
-8.1454583074
 20
176.873503805
 10
-6.4915770167
 20
176.2911766014
 10
-4.9030323324
 20
175.6240712672
 10
-3.3885003348
 20
174.8758313004
 10
-1.9562528723
 20
174.0505433283
 10
-0.614112384
 20
173.1527147875
 10
0.6305908243
 20
172.1872493062
 10
1.7710586151
 20
171.159419922
 10
2.801062149
 20
170.0748402827
 10
3.7149759038
 20
168.9394339861
 10
4.5078083994
 20
167.7594022278
 10
5.1752294598
 20
166.5411899318
 10
5.7135938625
 20
165.2914505515
 10
6.1199612478
 20
164.0170097298
 10
6.3921121781
 20
162.7248280206
 10
6.5285602593
 20
161.4219628724
 10
6.5285602593
 20
160.1155300828
 10
6.3921121781
 20
158.8126649345
 10
6.1199612478
 20
157.5204832254
 10
5.7135938625
 20
156.2460424037
 10
5.1752294598
 20
154.9963030234
 10
4.5078083994
 20
153.7780907274
 10
3.7149759038
 20
152.598058969
 10
2.801062149
 20
151.4626526725
 10
1.7710586151
 20
150.3780730332
 10
0.6305908243
 20
149.350243649
 10
-0.614112384
 20
148.3847781677
 10
-1.9562528723
 20
147.4869496269
 10
-3.3885003348
 20
146.6616616548
 10
-4.9030323324
 20
145.913421688
 10
-6.4915770167
 20
145.2463163538
 10
-8.1454583074
 20
144.6639891502
 10
-9.8556432784
 20
144.1696205464
 10
-11.6127914924
 20
143.7659106124
 10
-13.4073060153
 20
143.4550642718
 10
-15.229385831
 20
143.2387792595
 10
-17.0690793713
 20
143.1182368493
 10
-18.9163388682
 20
143.0940954019
 10
-20.7610752308
 20
143.1664867697
 10
-22.5932131489
 20
143.335015576
 10
-24.4027461203
 20
143.598761375
 10
-26.1797911036
 20
143.9562836785
 10
-27.9146424953
 20
144.4056298238
 10
-29.5978251387
 20
144.9443456379
 10
-31.2201460738
 20
145.569488842
 10
-32.7727447463
 20
146.2776451207
 10
-34.2471414006
 20
147.0649467698
 10
-35.6352833935
 20
147.9270938209
 10
-36.9295891748
 20
148.8593775256
 10
-38.1229896951
 20
149.8567060738
 10
-39.2089670146
 20
150.9136324026
 10
-40.1815899019
 20
152.0243839471
 10
-41.0355462279
 20
153.1828941673
 10
-41.7661719794
 20
154.3828356824
 10
-42.3694767318
 20
155.6176548278
 10
-42.8421654438
 20
156.8806074495
 10
-43.1816564535
 20
158.1647957382
 10
-43.3860955789
 20
159.463205903
 10
-43.4543662442
 20
160.7687464776
  0
SPLINE
  5
A3
330
1F
100
AcDbEntity
  8
0
  6
Continuous
 62
     7
370
    25
100
AcDbSpline
210
0.0
220
0.0
230
1.0
 70
     8
 71
     3
 72
    22
 73
    18
 74
     0
 42
0.00000001
 43
0.00000001
 40
0.0
 40
0.0
 40
0.0
 40
0.0
 40
0.041672550713619
 40
0.1127804014584537
 40
0.1859768559142318
 40
0.2565244446350521
 40
0.3292110483229446
 40
0.3982110720777278
 40
0.4692235682838038
 40
0.5381285823282291
 40
0.6089514498140834
 40
0.6793262781489566
 40
0.7516927083102368
 40
0.822846846854557
 40
0.896125398874445
 40
0.9661719054174809
 40
1.0
 40
1.0
 40
1.0
 40
1.0
 10
-49.56308856404629
 20
146.7219321792002
 30
0.0
 10
-49.53736140896235
 20
146.7189173543177
 30
0.0
 10
-49.4677347883437
 20
146.7107581906776
 30
0.0
 10
-49.35843565251145
 20
146.9182082624035
 30
0.0
 10
-49.25460973959314
 20
147.3184430922265
 30
0.0
 10
-49.18510119467125
 20
147.9150352972617
 30
0.0
 10
-49.15933591700758
 20
148.6621838196064
 30
0.0
 10
-49.17874227871535
 20
149.5521071618872
 30
0.0
 10
-49.23946024933228
 20
150.537828815459
 30
0.0
 10
-49.33548295050688
 20
151.6156669407655
 30
0.0
 10
-49.45524315051958
 20
152.7446710890336
 30
0.0
 10
-49.58818742076042
 20
153.9173514205734
 30
0.0
 10
-49.71799607913789
 20
155.0859983232461
 30
0.0
 10
-49.83230394356433
 20
156.2344975590167
 30
0.0
 10
-49.91253993195433
 20
157.2932415987666
 30
0.0
 10
-49.95363976275886
 20
158.108154890643
 30
0.0
 10
-49.94994782949494
 20
158.5014299766898
 30
0.0
 10
-49.94874550413059
 20
158.6295050466643
 30
0.0
  0
LINE
  5
A4
330
1F
100
AcDbEntity
  8
0
  6
Continuous
 62
     7
370
    25
100
AcDbLine
 10
-64.9543662442
 20
160.6976786657
 30
0.0
 11
-64.9543662442
 21
146.6976786657
 31
0.0
  0
LINE
  5
A5
330
1F
100
AcDbEntity
  8
0
  6
Continuous
 62
     7
370
    25
100
AcDbLine
 10
-49.9543662442
 20
36.7687464776
 30
0.0
 11
13.0456337558
 21
36.7687464776
 31
0.0
  0
SPLINE
  5
A6
330
1F
100
AcDbEntity
  8
0
  6
Continuous
 62
     7
370
    25
100
AcDbSpline
210
0.0
220
0.0
230
1.0
 70
     8
 71
     3
 72
    27
 73
    23
 74
     0
 42
0.00000001
 43
0.00000001
 40
0.0
 40
0.0
 40
0.0
 40
0.0
 40
0.0330626045928643
 40
0.0846610415582721
 40
0.1377360899938566
 40
0.1897474001822268
 40
0.2432054744168825
 40
0.2963127221142689
 40
0.3509482350119768
 40
0.4041809523375617
 40
0.4590219111975787
 40
0.5111409848476711
 40
0.5648106790224564
 40
0.6163303727693563
 40
0.6693004758657989
 40
0.7216488471194903
 40
0.7754583899369788
 40
0.828781835441186
 40
0.8836693112867109
 40
0.9366131969354764
 40
0.9911591603802544
 40
1.0
 40
1.0
 40
1.0
 40
1.0
 10
-49.94901685039795
 20
39.79286656902099
 30
0.0
 10
-49.94949495886517
 20
39.79068461461177
 30
0.0
 10
-49.95071921694501
 20
39.78509744036485
 30
0.0
 10
-49.90463559357709
 20
39.99385771442131
 30
0.0
 10
-49.82241970421396
 20
40.38300885507528
 30
0.0
 10
-49.7093326459901
 20
40.95846723270193
 30
0.0
 10
-49.58046220216805
 20
41.68975852719831
 30
0.0
 10
-49.44689180169526
 20
42.57565564461196
 30
0.0
 10
-49.3257830553619
 20
43.58035164866175
 30
0.0
 10
-49.23003467201622
 20
44.68937048234864
 30
0.0
 10
-49.17318425476809
 20
45.84346286039575
 30
0.0
 10
-49.16037603229955
 20
47.02738749506412
 30
0.0
 10
-49.19211230694461
 20
48.17993024072881
 30
0.0
 10
-49.26442299214067
 20
49.29740301260512
 30
0.0
 10
-49.36786354961423
 20
50.33561823576275
 30
0.0
 10
-49.49340028595418
 20
51.28908518620936
 30
0.0
 10
-49.62643672951161
 20
52.11994363877267
 30
0.0
 10
-49.75368434069881
 20
52.81172487540685
 30
0.0
 10
-49.85970327895423
 20
53.33371333414168
 30
0.0
 10
-49.92874995262606
 20
53.65382105268232
 30
0.0
 10
-49.95898674032241
 20
53.7896185479737
 30
0.0
 10
-49.95236862580347
 20
53.75972470955731
 30
0.0
 10
-49.95144556790784
 20
53.75555528282682
 30
0.0
  0
LINE
  5
A7
330
1F
100
AcDbEntity
  8
0
  6
Continuous
 62
     7
370
    25
100
AcDbLine
 10
-64.9543662442
 20
53.7687464776
 30
0.0
 11
-64.9543662442
 21
39.7687464776
 31
0.0
  0
LWPOLYLINE
  5
A8
330
1F
100
AcDbEntity
  8
0
  6
Continuous
 62
     1
370
    25
100
AcDbPolyline
 90
       50
 70
   128
 43
0.0
 10
-49.9543662442
 20
119.6575274018
 10
-49.8869223263
 20
118.2007470218
 10
-49.6848793775
 20
116.7502047991
 10
-49.349102577
 20
115.3121121781
 10
-48.8810297724
 20
113.8926272922
 10
-48.2826653233
 20
112.4978285936
 10
-47.5565715184
 20
111.1336888245
 10
-46.7058576025
 20
109.8060494408
 10
-45.7341664635
 20
108.5205955981
 10
-44.6456590318
 20
107.2828318072
 10
-43.4449964634
 20
106.0980583626
 10
-42.1373201798
 20
104.9713486462
 10
-40.7282298516
 20
103.9075274018
 10
-39.2237594199
 20
102.9111500754
 10
-37.630351258
 20
101.9864833077
 10
-35.9548285844
 20
101.1374866637
 10
-34.2043662442
 20
100.3677956774
 10
-32.3864599861
 20
99.6807062837
 10
-30.5088943637
 20
99.079160705
 10
-28.5797094013
 20
98.5657348517
 10
-26.607166165
 20
98.1426272922
 10
-24.5997113878
 20
97.811649838
 10
-22.5659412992
 20
97.5742197853
 10
-20.514564815
 20
97.4313538462
 10
-18.4543662442
 20
97.3836637944
 10
-16.3941676735
 20
97.4313538462
 10
-14.3427911893
 20
97.5742197853
 10
-12.3090211007
 20
97.811649838
 10
-10.3015663235
 20
98.1426272922
 10
-8.3290230872
 20
98.5657348517
 10
-6.3998381247
 20
99.079160705
 10
-4.5222725023
 20
99.6807062837
 10
-2.7043662442
 20
100.3677956774
 10
-0.9539039041
 20
101.1374866637
 10
0.7216187695
 20
101.9864833077
 10
2.3150269314
 20
102.9111500754
 10
3.8194973631
 20
103.9075274018
 10
5.2285876913
 20
104.9713486462
 10
6.5362639749
 20
106.0980583626
 10
7.7369265433
 20
107.2828318072
 10
8.825433975
 20
108.5205955981
 10
9.797125114
 20
109.8060494408
 10
10.6478390299
 20
111.1336888245
 10
11.3739328348
 20
112.4978285936
 10
11.9722972839
 20
113.8926272922
 10
12.4403700885
 20
115.3121121781
 10
12.776146889
 20
116.7502047991
 10
12.9781898378
 20
118.2007470218
 10
13.0456337558
 20
119.6575274018
 10
13.0456337558
 20
119.6575274018
  0
LINE
  5
A9
330
1F
100
AcDbEntity
  8
0
  6
Continuous
 62
     1
370
    25
100
AcDbLine
 10
-49.9543662442
 20
94.9087900603
 30
0.0
 11
13.0456337558
 21
94.9087900603
 31
0.0
  0
INSERT
  5
B5
330
1F
100
AcDbEntity
  8
FORMAT
 62
     7
100
AcDbBlockReference
  2
SW_CENTERMARKSYMBOL_0
 10
-18.4543662442
 20
108.7687464776
 30
0.0
  0
LINE
  5
B6
330
1F
100
AcDbEntity
  8
0
  6
Continuous
 62
     7
370
    25
100
AcDbLine
 10
133.8100776381
 20
284.3345793621
 30
0.0
 11
133.8100776381
 21
300.1181001241
 31
0.0
  0
LINE
  5
B7
330
1F
100
AcDbEntity
  8
0
  6
Continuous
 62
     7
370
    25
100
AcDbLine
 10
119.8100776381
 20
300.1181001241
 30
0.0
 11
119.8100776381
 21
284.33047548
 31
0.0
  0
LINE
  5
B8
330
1F
100
AcDbEntity
  8
0
  6
Continuous
 62
     7
370
    25
100
AcDbLine
 10
137.0613402965
 20
285.1181001241
 30
0.0
 11
133.8100776381
 21
285.1181001241
 31
0.0
  0
LINE
  5
B9
330
1F
100
AcDbEntity
  8
0
  6
Continuous
 62
     7
370
    25
100
AcDbLine
 10
126.8100776381
 20
222.1181001241
 30
0.0
 11
137.0613402965
 21
222.1181001241
 31
0.0
  0
LINE
  5
BA
330
1F
100
AcDbEntity
  8
0
  6
Continuous
 62
     7
370
    25
100
AcDbLine
 10
166.1662717746
 20
285.1181001241
 30
0.0
 11
137.0613402965
 21
285.1181001241
 31
0.0
  0
LINE
  5
BB
330
1F
100
AcDbEntity
  8
0
  6
Continuous
 62
     7
370
    25
100
AcDbLine
 10
178.1725593723
 20
285.1181001241
 30
0.0
 11
178.1014915605
 21
285.1181001241
 31
0.0
  0
LINE
  5
BC
330
1F
100
AcDbEntity
  8
0
  6
Continuous
 62
     7
370
    25
100
AcDbLine
 10
137.0613402965
 20
222.1181001241
 30
0.0
 11
178.1725593723
 21
222.1181001241
 31
0.0
  0
LINE
  5
BD
330
1F
100
AcDbEntity
  8
0
  6
Continuous
 62
     7
370
    25
100
AcDbLine
 10
178.1014915605
 20
284.726991988
 30
0.0
 11
178.1014915605
 21
300.1181001241
 31
0.0
  0
LINE
  5
BE
330
1F
100
AcDbEntity
  8
0
  6
Continuous
 62
     7
370
    25
100
AcDbLine
 10
164.1014915605
 20
300.1181001241
 30
0.0
 11
164.1014915605
 21
285.1181001241
 31
0.0
  0
CIRCLE
  5
BF
330
1F
100
AcDbEntity
  8
0
  6
Continuous
 62
     7
370
    25
100
AcDbCircle
 10
126.8100776381
 20
253.6181001241
 30
0.0
 40
25.00000000000003
  0
CIRCLE
  5
C0
330
1F
100
AcDbEntity
  8
0
  6
Continuous
 62
     7
370
    25
100
AcDbCircle
 10
126.8100776381
 20
253.6181001241
 30
0.0
 40
31.50000000000003
  0
LINE
  5
C1
330
1F
100
AcDbEntity
  8
0
  6
Continuous
 62
     7
370
    25
100
AcDbLine
 10
133.8100776381
 20
300.1181001241
 30
0.0
 11
119.8100776381
 21
300.1181001241
 31
0.0
  0
LWPOLYLINE
  5
C2
330
1F
100
AcDbEntity
  8
0
  6
Continuous
 62
     7
370
    25
100
AcDbPolyline
 90
       50
 70
   128
 43
0.0
 10
178.1725593723
 20
285.1181001241
 10
179.6293397523
 20
285.0506562062
 10
181.079881975
 20
284.8486132574
 10
182.517974596
 20
284.5128364568
 10
183.9374594819
 20
284.0447636522
 10
185.3322581805
 20
283.4463992032
 10
186.6963979496
 20
282.7203053982
 10
188.0240373333
 20
281.8695914824
 10
189.309491176
 20
280.8979003434
 10
190.5472549669
 20
279.8093929117
 10
191.7320284115
 20
278.6087303433
 10
192.858738128
 20
277.3010540597
 10
193.9225593723
 20
275.8919637315
 10
194.9189366987
 20
274.3874932998
 10
195.8436034664
 20
272.7940851379
 10
196.6926001104
 20
271.1185624643
 10
197.4622910967
 20
269.3681001241
 10
198.1493804904
 20
267.550193866
 10
198.7509260691
 20
265.6726282436
 10
199.2643519224
 20
263.7434432812
 10
199.6874594819
 20
261.7709000449
 10
200.0184369361
 20
259.7634452677
 10
200.2558669888
 20
257.7296751791
 10
200.3987329279
 20
255.6782986949
 10
200.4464229797
 20
253.6181001241
 10
200.3987329279
 20
251.5579015534
 10
200.2558669888
 20
249.5065250692
 10
200.0184369361
 20
247.4727549806
 10
199.6874594819
 20
245.4653002034
 10
199.2643519224
 20
243.4927569671
 10
198.7509260691
 20
241.5635720046
 10
198.1493804904
 20
239.6860063822
 10
197.4622910967
 20
237.8681001241
 10
196.6926001104
 20
236.117637784
 10
195.8436034664
 20
234.4421151104
 10
194.9189366987
 20
232.8487069485
 10
193.9225593723
 20
231.3442365168
 10
192.858738128
 20
229.9351461886
 10
191.7320284115
 20
228.627469905
 10
190.5472549669
 20
227.4268073366
 10
189.309491176
 20
226.3382999049
 10
188.0240373333
 20
225.3666087659
 10
186.6963979496
 20
224.51589485
 10
185.3322581805
 20
223.789801045
 10
183.9374594819
 20
223.191436596
 10
182.517974596
 20
222.7233637914
 10
181.079881975
 20
222.3875869909
 10
179.6293397523
 20
222.1855440421
 10
178.1725593723
 20
222.1181001241
 10
178.1725593723
 20
222.1181001241
  0
SPLINE
  5
C3
330
1F
100
AcDbEntity
  8
0
  6
Continuous
 62
     7
370
    25
100
AcDbSpline
210
0.0
220
0.0
230
1.0
 70
     8
 71
     3
 72
    22
 73
    18
 74
     0
 42
0.00000001
 43
0.00000001
 40
0.0
 40
0.0
 40
0.0
 40
0.0
 40
0.0223326536894055
 40
0.0938083283173944
 40
0.1625853918038789
 40
0.2332989844931046
 40
0.3031710858463765
 40
0.3749972891657621
 40
0.4461020389896017
 40
0.5192953014430902
 40
0.5898398136752144
 40
0.662523247594747
 40
0.7315202623481318
 40
0.8025296617915002
 40
0.8714316709777773
 40
0.9422514499703861
 40
1.0
 40
1.0
 40
1.0
 40
1.0
 10
166.1662926843004
 20
285.1135446075345
 30
0.0
 10
166.2492153113444
 20
285.1148178735423
 30
0.0
 10
166.5975318674898
 20
285.120166228348
 30
0.0
 10
167.3373273359399
 20
285.0858570981861
 30
0.0
 10
168.3617274240645
 20
285.0136221773143
 30
0.0
 10
169.4599431561342
 20
284.9082857199641
 30
0.0
 10
170.6143125461183
 20
284.7823053247746
 30
0.0
 10
171.7846799192171
 20
284.64918044851
 30
0.0
 10
172.9544480306018
 20
284.5221726941699
 30
0.0
 10
174.0672526766881
 20
284.4183427844878
 30
0.0
 10
175.1047337750807
 20
284.3488353481496
 30
0.0
 10
176.0112793878343
 20
284.3230695534571
 30
0.0
 10
176.7812944409111
 20
284.3424768368682
 30
0.0
 10
177.3842989744171
 20
284.4031915992442
 30
0.0
 10
177.8144193217923
 20
284.4992260468218
 30
0.0
 10
178.0656591267021
 20
284.6117486697975
 30
0.0
 10
178.0806825277141
 20
284.6912725483273
 30
0.0
 10
178.0874305319198
 20
284.7269919880428
 30
0.0
  0
LINE
  5
C4
330
1F
100
AcDbEntity
  8
0
  6
Continuous
 62
     7
370
    25
100
AcDbLine
 10
178.1014915605
 20
300.1181001241
 30
0.0
 11
164.1014915605
 21
300.1181001241
 31
0.0
  0
LWPOLYLINE
  5
C5
330
1F
100
AcDbEntity
  8
0
  6
Continuous
 62
     1
370
    25
100
AcDbPolyline
 90
       50
 70
   128
 43
0.0
 10
137.0613402965
 20
285.1181001241
 10
138.5181206765
 20
285.0506562062
 10
139.9686628992
 20
284.8486132574
 10
141.4067555202
 20
284.5128364568
 10
142.8262404061
 20
284.0447636522
 10
144.2210391047
 20
283.4463992032
 10
145.5851788738
 20
282.7203053982
 10
146.9128182576
 20
281.8695914824
 10
148.1982721002
 20
280.8979003434
 10
149.4360358911
 20
279.8093929117
 10
150.6208093357
 20
278.6087303433
 10
151.7475190522
 20
277.3010540597
 10
152.8113402965
 20
275.8919637315
 10
153.8077176229
 20
274.3874932998
 10
154.7323843906
 20
272.7940851379
 10
155.5813810346
 20
271.1185624643
 10
156.3510720209
 20
269.3681001241
 10
157.0381614146
 20
267.550193866
 10
157.6397069933
 20
265.6726282436
 10
158.1531328466
 20
263.7434432812
 10
158.5762404061
 20
261.7709000449
 10
158.9072178604
 20
259.7634452677
 10
159.144647913
 20
257.7296751791
 10
159.2875138521
 20
255.6782986949
 10
159.3352039039
 20
253.6181001241
 10
159.2875138521
 20
251.5579015534
 10
159.144647913
 20
249.5065250692
 10
158.9072178604
 20
247.4727549806
 10
158.5762404061
 20
245.4653002034
 10
158.1531328466
 20
243.4927569671
 10
157.6397069933
 20
241.5635720046
 10
157.0381614146
 20
239.6860063822
 10
156.3510720209
 20
237.8681001241
 10
155.5813810346
 20
236.117637784
 10
154.7323843906
 20
234.4421151104
 10
153.8077176229
 20
232.8487069485
 10
152.8113402965
 20
231.3442365168
 10
151.7475190522
 20
229.9351461886
 10
150.6208093357
 20
228.627469905
 10
149.4360358911
 20
227.4268073366
 10
148.1982721002
 20
226.3382999049
 10
146.9128182575
 20
225.3666087659
 10
145.5851788738
 20
224.51589485
 10
144.2210391047
 20
223.789801045
 10
142.8262404061
 20
223.191436596
 10
141.4067555202
 20
222.7233637914
 10
139.9686628992
 20
222.3875869909
 10
138.5181206765
 20
222.1855440421
 10
137.0613402965
 20
222.1181001241
 10
137.0613402965
 20
222.1181001241
  0
LWPOLYLINE
  5
C6
330
1F
100
AcDbEntity
  8
0
  6
Continuous
 62
     1
370
    25
100
AcDbPolyline
 90
       38
 70
   128
 43
0.0
 10
132.8151282719
 20
277.886173119
 10
131.9102486467
 20
277.5332106117
 10
130.6754295013
 20
276.9299058593
 10
129.4754879863
 20
276.1992801078
 10
128.316977766
 20
275.3453237818
 10
127.2062262215
 20
274.3727008945
 10
126.1492998927
 20
273.286723575
 10
125.1519713446
 20
272.0933230547
 10
124.2196876398
 20
270.7990172734
 10
123.3575405888
 20
269.4108752805
 10
122.5702389396
 20
267.9364786262
 10
121.862082661
 20
266.3838799537
 10
121.2369394569
 20
264.7615590186
 10
120.6982236427
 20
263.0783763752
 10
120.2488774974
 20
261.3435249835
 10
119.8913551939
 20
259.5664800002
 10
119.6276093949
 20
257.7569470287
 10
119.4590805886
 20
255.9248091107
 10
119.3866892208
 20
254.0800727481
 10
119.4108306682
 20
252.2328132512
 10
119.5313730784
 20
250.3931197109
 10
119.7476580907
 20
248.5710398952
 10
120.0585044314
 20
246.7765253723
 10
120.4622143654
 20
245.0193771583
 10
120.9565829691
 20
243.3091921873
 10
121.5389101727
 20
241.6553108966
 10
122.2060155069
 20
240.0667662123
 10
122.9542554737
 20
238.5522342147
 10
123.7795434458
 20
237.1199867522
 10
124.6773719866
 20
235.7778462639
 10
125.6428374679
 20
234.5331430556
 10
126.6706668521
 20
233.3926752648
 10
127.7552464914
 20
232.3626717309
 10
128.890652788
 20
231.4487579761
 10
130.0706845464
 20
230.6559254805
 10
131.2888968423
 20
229.9885044201
 10
132.5386362227
 20
229.4501400174
 10
132.8151282719
 20
229.3500271293
  0
INSERT
  5
D2
330
1F
100
AcDbEntity
  8
FORMAT
 62
     7
100
AcDbBlockReference
  2
SW_CENTERMARKSYMBOL_1
 10
126.8100776381
 20
253.6181001241
 30
0.0
  0
LINE
  5
D3
330
1F
100
AcDbEntity
  8
0
  6
Continuous
 62
     7
370
    25
100
AcDbLine
 10
280.4463502792
 20
94.9087900603
 30
0.0
 11
280.4463502792
 21
36.7687464776
 31
0.0
  0
LINE
  5
D4
330
1F
100
AcDbEntity
  8
0
  6
Continuous
 62
     7
370
    25
100
AcDbLine
 10
343.4463502792
 20
53.7555552828
 30
0.0
 11
343.4463502792
 21
94.9087900603
 31
0.0
  0
LINE
  5
D5
330
1F
100
AcDbEntity
  8
0
  6
Continuous
 62
     7
370
    25
100
AcDbLine
 10
343.4463502792
 20
36.7687464776
 30
0.0
 11
343.4463502792
 21
39.792866569
 31
0.0
  0
LINE
  5
D6
330
1F
100
AcDbEntity
  8
0
  6
Continuous
 62
     7
370
    25
100
AcDbLine
 10
343.4463502792
 20
94.9087900603
 30
0.0
 11
343.4463502792
 21
119.6575274018
 31
0.0
  0
LINE
  5
D7
330
1F
100
AcDbEntity
  8
0
  6
Continuous
 62
     7
370
    25
100
AcDbLine
 10
280.4463502792
 20
119.6575274018
 30
0.0
 11
280.4463502792
 21
94.9087900603
 31
0.0
  0
LINE
  5
D8
330
1F
100
AcDbEntity
  8
0
  6
Continuous
 62
     7
370
    25
100
AcDbLine
 10
280.4463502792
 20
160.7687464776
 30
0.0
 11
280.4463502792
 21
119.6575274018
 31
0.0
  0
LINE
  5
D9
330
1F
100
AcDbEntity
  8
0
  6
Continuous
 62
     7
370
    25
100
AcDbLine
 10
343.4463502792
 20
160.6976786657
 30
0.0
 11
343.4463502792
 21
160.7687464776
 31
0.0
  0
LINE
  5
DA
330
1F
100
AcDbEntity
  8
0
  6
Continuous
 62
     7
370
    25
100
AcDbLine
 10
343.4463502792
 20
119.6575274018
 30
0.0
 11
343.4463502792
 21
148.7624588798
 31
0.0
  0
LINE
  5
DB
330
1F
100
AcDbEntity
  8
0
  6
Continuous
 62
     7
370
    25
100
AcDbLine
 10
343.4410027278
 20
39.7687464776
 30
0.0
 11
358.4463502792
 21
39.7687464776
 31
0.0
  0
LINE
  5
DC
330
1F
100
AcDbEntity
  8
0
  6
Continuous
 62
     7
370
    25
100
AcDbLine
 10
358.4463502792
 20
53.7687464776
 30
0.0
 11
343.443437647
 21
53.7687464776
 31
0.0
  0
LINE
  5
DD
330
1F
100
AcDbEntity
  8
0
  6
Continuous
 62
     7
370
    25
100
AcDbLine
 10
343.4463502792
 20
146.6976786657
 30
0.0
 11
358.4463502792
 21
146.6976786657
 31
0.0
  0
LINE
  5
DE
330
1F
100
AcDbEntity
  8
0
  6
Continuous
 62
     7
370
    25
100
AcDbLine
 10
358.4463502792
 20
160.6976786657
 30
0.0
 11
343.0552456752
 21
160.6976786657
 31
0.0
  0
LINE
  5
DF
330
1F
100
AcDbEntity
  8
0
  6
Continuous
 62
     7
370
    25
100
AcDbLine
 10
280.4463502792
 20
36.7687464776
 30
0.0
 11
343.4463502792
 21
36.7687464776
 31
0.0
  0
SPLINE
  5
E0
330
1F
100
AcDbEntity
  8
0
  6
Continuous
 62
     7
370
    25
100
AcDbSpline
210
0.0
220
0.0
230
1.0
 70
     8
 71
     3
 72
    17
 73
    13
 74
     0
 42
0.00000001
 43
0.00000001
 40
0.0
 40
0.0
 40
0.0
 40
0.0
 40
0.1040386465907096
 40
0.2111425147155118
 40
0.3151678641265913
 40
0.4221227348755838
 40
0.5277708399581057
 40
0.6364143602326403
 40
0.7431272293661395
 40
0.8530315550140427
 40
0.9580006296670912
 40
1.0
 40
1.0
 40
1.0
 40
1.0
 10
342.658725635054
 20
46.76874647759546
 30
0.0
 10
342.6628993038806
 20
46.38622689948039
 30
0.0
 10
342.6713696075659
 20
45.60991782301893
 30
0.0
 10
342.7375676327607
 20
44.4840799407816
 30
0.0
 10
342.8357085489112
 20
43.41375979766278
 30
0.0
 10
342.9576122036657
 20
42.4417114696123
 30
0.0
 10
343.0911766558372
 20
41.57689162273913
 30
0.0
 10
343.2201245206626
 20
40.85851400814236
 30
0.0
 10
343.3324530267193
 20
40.29537584729117
 30
0.0
 10
343.4094018404649
 20
39.93521881745517
 30
0.0
 10
343.4471603679706
 20
39.76507841854229
 30
0.0
 10
343.4423698718538
 20
39.7866904653239
 30
0.0
 10
343.4410008853309
 20
39.79286656902099
 30
0.0
  0
SPLINE
  5
E1
330
1F
100
AcDbEntity
  8
0
  6
Continuous
 62
     7
370
    25
100
AcDbSpline
210
0.0
220
0.0
230
1.0
 70
     8
 71
     3
 72
    16
 73
    12
 74
     0
 42
0.00000001
 43
0.00000001
 40
0.0
 40
0.0
 40
0.0
 40
0.0
 40
0.0860090460616689
 40
0.192737806668138
 40
0.2961503070680073
 40
0.4024518639399239
 40
0.5078872079359618
 40
0.6162968895182679
 40
0.72308423872608
 40
0.8330500496990676
 40
1.0
 40
1.0
 40
1.0
 40
1.0
 10
343.4434296028408
 20
53.75555528282681
 30
0.0
 10
343.441829408131
 20
53.74842083734416
 30
0.0
 10
343.4382435292874
 20
53.73243324723494
 30
0.0
 10
343.3827315403819
 20
53.47953230185124
 30
0.0
 10
343.2925462065112
 20
53.04705513356834
 30
0.0
 10
343.1758797083241
 20
52.44208154332855
 30
0.0
 10
343.0442253127227
 20
51.6731819971731
 30
0.0
 10
342.9124655401458
 20
50.76545266926654
 30
0.0
 10
342.7955421220598
 20
49.72958099032194
 30
0.0
 10
342.6870493947845
 20
48.40383597909346
 30
0.0
 10
342.669378970412
 20
47.38374805103111
 30
0.0
 10
342.658725635054
 20
46.76874647759546
 30
0.0
  0
LWPOLYLINE
  5
E2
330
1F
100
AcDbEntity
  8
0
  6
Continuous
 62
     7
370
    25
100
AcDbPolyline
 90
       49
 70
   128
 43
0.0
 10
280.4463502792
 20
160.7687464776
 10
280.5137941972
 20
162.2255268576
 10
280.7158371459
 20
163.6760690803
 10
281.0516139465
 20
165.1141617013
 10
281.5196867511
 20
166.5336465872
 10
282.1180512001
 20
167.9284452858
 10
282.8441450051
 20
169.2925850549
 10
283.6948589209
 20
170.6202244386
 10
284.66655006
 20
171.9056782813
 10
285.7550574917
 20
173.1434420722
 10
286.95572006
 20
174.3282155168
 10
288.2633963436
 20
175.4549252332
 10
289.6724866718
 20
176.5187464776
 10
291.1769571035
 20
177.515123804
 10
292.7703652654
 20
178.4397905717
 10
294.4458879391
 20
179.2887872157
 10
296.1963502792
 20
180.058478202
 10
298.0142565373
 20
180.7455675957
 10
299.8918221597
 20
181.3471131744
 10
301.8210071221
 20
181.8605390277
 10
303.7935503585
 20
182.2836465872
 10
305.8010051357
 20
182.6146240414
 10
307.8347752243
 20
182.8520540941
 10
309.8861517084
 20
182.9949200332
 10
311.9463502792
 20
183.042610085
 10
314.0065488499
 20
182.9949200332
 10
316.0579253341
 20
182.8520540941
 10
318.0916954227
 20
182.6146240414
 10
320.0991501999
 20
182.2836465872
 10
322.0716934362
 20
181.8605390277
 10
324.0008783987
 20
181.3471131744
 10
325.8784440211
 20
180.7455675957
 10
327.6963502792
 20
180.058478202
 10
329.4468126193
 20
179.2887872157
 10
331.122335293
 20
178.4397905717
 10
332.7157434548
 20
177.515123804
 10
334.2202138866
 20
176.5187464776
 10
335.6293042148
 20
175.4549252332
 10
336.9369804984
 20
174.3282155168
 10
338.1376430667
 20
173.1434420722
 10
339.2261504984
 20
171.9056782813
 10
340.1978416375
 20
170.6202244386
 10
341.0485555533
 20
169.2925850549
 10
341.7746493583
 20
167.9284452858
 10
342.3730138073
 20
166.5336465872
 10
342.8410866119
 20
165.1141617013
 10
343.1768634125
 20
163.6760690803
 10
343.3789063612
 20
162.2255268576
 10
343.4463502792
 20
160.7687464776
  0
SPLINE
  5
E3
330
1F
100
AcDbEntity
  8
0
  6
Continuous
 62
     7
370
    25
100
AcDbSpline
210
0.0
220
0.0
230
1.0
 70
     8
 71
     3
 72
    12
 73
     8
 74
     0
 42
0.00000001
 43
0.00000001
 40
0.0
 40
0.0
 40
0.0
 40
0.0
 40
0.2115719759376221
 40
0.429193554721492
 40
0.6407921214729656
 40
0.8587137773466211
 40
1.0
 40
1.0
 40
1.0
 40
1.0
 10
343.0550307397862
 20
153.69767866573
 30
0.0
 10
343.0984299846211
 20
153.3113070774781
 30
0.0
 10
343.186469414609
 20
152.5275161492594
 30
0.0
 10
343.3033749346674
 20
151.3867132981011
 30
0.0
 10
343.3916828275802
 20
150.3035852777624
 30
0.0
 10
343.4415277821751
 20
149.4141418874929
 30
0.0
 10
343.4417193957461
 20
148.9464097383314
 30
0.0
 10
343.441794762572
 20
148.7624379701186
 30
0.0
  0
SPLINE
  5
E4
330
1F
100
AcDbEntity
  8
0
  6
Continuous
 62
     7
370
    25
100
AcDbSpline
210
0.0
220
0.0
230
1.0
 70
     8
 71
     3
 72
    16
 73
    12
 74
     0
 42
0.00000001
 43
0.00000001
 40
0.0
 40
0.0
 40
0.0
 40
0.0
 40
0.0838772637358982
 40
0.1930943931775758
 40
0.2996395657681908
 40
0.4094002042292738
 40
0.5137635334581919
 40
0.6212380782487246
 40
0.7242923747185112
 40
0.8302531918446712
 40
0.9999999999999999
 40
0.9999999999999999
 40
0.9999999999999999
 40
0.9999999999999999
 10
343.0552456751521
 20
160.6816573826123
 30
0.0
 10
343.0206666693142
 20
160.6764255784255
 30
0.0
 10
342.94106211557
 20
160.6643814080547
 30
0.0
 10
342.8269692402284
 20
160.4111765733189
 30
0.0
 10
342.7285307107664
 20
159.9655152002759
 30
0.0
 10
342.668247644625
 20
159.340424387208
 30
0.0
 10
342.6516784222272
 20
158.5545262895872
 30
0.0
 10
342.6798784971205
 20
157.650627003663
 30
0.0
 10
342.749172313125
 20
156.6356442912789
 30
0.0
 10
342.8713087403759
 20
155.3285254412019
 30
0.0
 10
342.9850208338408
 20
154.3191362469038
 30
0.0
 10
343.0550307397862
 20
153.69767866573
 30
0.0
  0
LINE
  5
E5
330
1F
100
AcDbEntity
  8
0
  6
Continuous
 62
     7
370
    25
100
AcDbLine
 10
358.4463502792
 20
46.7687464776
 30
0.0
 11
358.4463502792
 21
53.7687464776
 31
0.0
  0
LINE
  5
E6
330
1F
100
AcDbEntity
  8
0
  6
Continuous
 62
     7
370
    25
100
AcDbLine
 10
358.4463502792
 20
39.7687464776
 30
0.0
 11
358.4463502792
 21
46.7687464776
 31
0.0
  0
LINE
  5
E7
330
1F
100
AcDbEntity
  8
0
  6
Continuous
 62
     7
370
    25
100
AcDbLine
 10
358.4463502792
 20
153.6976786657
 30
0.0
 11
358.4463502792
 21
160.6976786657
 31
0.0
  0
LINE
  5
E8
330
1F
100
AcDbEntity
  8
0
  6
Continuous
 62
     7
370
    25
100
AcDbLine
 10
358.4463502792
 20
146.6976786657
 30
0.0
 11
358.4463502792
 21
153.6976786657
 31
0.0
  0
LINE
  5
E9
330
1F
100
AcDbEntity
  8
0
  6
Continuous
 62
     1
370
    25
100
AcDbLine
 10
280.4463502792
 20
94.9087900603
 30
0.0
 11
343.4463502792
 21
94.9087900603
 31
0.0
  0
LWPOLYLINE
  5
EA
330
1F
100
AcDbEntity
  8
0
  6
Continuous
 62
     1
370
    25
100
AcDbPolyline
 90
       49
 70
   128
 43
0.0
 10
280.4463502792
 20
119.6575274018
 10
280.5137941972
 20
121.1143077818
 10
280.7158371459
 20
122.5648500045
 10
281.0516139465
 20
124.0029426255
 10
281.5196867511
 20
125.4224275114
 10
282.1180512001
 20
126.81722621
 10
282.8441450051
 20
128.1813659791
 10
283.6948589209
 20
129.5090053628
 10
284.66655006
 20
130.7944592055
 10
285.7550574917
 20
132.0322229964
 10
286.95572006
 20
133.216996441
 10
288.2633963436
 20
134.3437061574
 10
289.6724866718
 20
135.4075274018
 10
291.1769571035
 20
136.4039047282
 10
292.7703652654
 20
137.3285714959
 10
294.4458879391
 20
138.1775681399
 10
296.1963502792
 20
138.9472591262
 10
298.0142565373
 20
139.6343485199
 10
299.8918221597
 20
140.2358940986
 10
301.8210071221
 20
140.7493199519
 10
303.7935503585
 20
141.1724275114
 10
305.8010051357
 20
141.5034049656
 10
307.8347752243
 20
141.7408350183
 10
309.8861517084
 20
141.8837009574
 10
311.9463502792
 20
141.9313910092
 10
314.0065488499
 20
141.8837009574
 10
316.0579253341
 20
141.7408350183
 10
318.0916954227
 20
141.5034049656
 10
320.0991501999
 20
141.1724275114
 10
322.0716934362
 20
140.7493199519
 10
324.0008783987
 20
140.2358940986
 10
325.8784440211
 20
139.6343485199
 10
327.6963502792
 20
138.9472591262
 10
329.4468126193
 20
138.1775681399
 10
331.122335293
 20
137.3285714959
 10
332.7157434548
 20
136.4039047282
 10
334.2202138866
 20
135.4075274018
 10
335.6293042148
 20
134.3437061574
 10
336.9369804984
 20
133.216996441
 10
338.1376430667
 20
132.0322229964
 10
339.2261504984
 20
130.7944592055
 10
340.1978416375
 20
129.5090053628
 10
341.0485555533
 20
128.1813659791
 10
341.7746493583
 20
126.81722621
 10
342.3730138073
 20
125.4224275114
 10
342.8410866119
 20
124.0029426255
 10
343.1768634125
 20
122.5648500045
 10
343.3789063612
 20
121.1143077818
 10
343.4463502792
 20
119.6575274018
  0
INSERT
  5
F6
330
1F
100
AcDbEntity
  8
FORMAT
 62
     7
100
AcDbBlockReference
  2
SW_CENTERMARKSYMBOL_2
 10
311.9463502792
 20
108.7687464776
 30
0.0
  0
LINE
  5
F7
330
1F
100
AcDbEntity
  8
0
  6
Continuous
 62
     7
370
    25
100
AcDbLine
 10
178.1725593723
 20
-37.4769720122
 30
0.0
 11
137.0613402965
 21
-37.4769720122
 31
0.0
  0
LINE
  5
F8
330
1F
100
AcDbEntity
  8
0
  6
Continuous
 62
     7
370
    25
100
AcDbLine
 10
176.0333226306
 20
-100.4769720122
 30
0.0
 11
178.1725593723
 21
-100.4769720122
 31
0.0
  0
LINE
  5
F9
330
1F
100
AcDbEntity
  8
0
  6
Continuous
 62
     7
370
    25
100
AcDbLine
 10
137.0613402965
 20
-100.4769720122
 30
0.0
 11
164.1014915605
 21
-100.4769720122
 31
0.0
  0
LINE
  5
FA
330
1F
100
AcDbEntity
  8
0
  6
Continuous
 62
     7
370
    25
100
AcDbLine
 10
164.1014915605
 20
-100.0856524728
 30
0.0
 11
164.1014915605
 21
-115.4769720122
 31
0.0
  0
LINE
  5
FB
330
1F
100
AcDbEntity
  8
0
  6
Continuous
 62
     7
370
    25
100
AcDbLine
 10
178.1014915605
 20
-115.4769720122
 30
0.0
 11
178.1014915605
 21
-100.4769720122
 31
0.0
  0
LINE
  5
FC
330
1F
100
AcDbEntity
  8
0
  6
Continuous
 62
     7
370
    25
100
AcDbLine
 10
126.8100776381
 20
-100.4769720122
 30
0.0
 11
137.0613402965
 21
-100.4769720122
 31
0.0
  0
LINE
  5
FD
330
1F
100
AcDbEntity
  8
0
  6
Continuous
 62
     7
370
    25
100
AcDbLine
 10
137.0613402965
 20
-37.4769720122
 30
0.0
 11
126.8100776381
 21
-37.4769720122
 31
0.0
  0
LINE
  5
FE
330
1F
100
AcDbEntity
  8
0
  6
Continuous
 62
     7
370
    25
100
AcDbLine
 10
119.8100776381
 20
-99.6893473681
 30
0.0
 11
119.8100776381
 21
-115.4769720122
 31
0.0
  0
LINE
  5
FF
330
1F
100
AcDbEntity
  8
0
  6
Continuous
 62
     7
370
    25
100
AcDbLine
 10
133.8100776381
 20
-115.4769720122
 30
0.0
 11
133.8100776381
 21
-100.4769720122
 31
0.0
  0
LWPOLYLINE
  5
100
330
1F
100
AcDbEntity
  8
0
  6
Continuous
 62
     7
370
    25
100
AcDbPolyline
 90
       97
 70
   128
 43
0.0
 10
178.1725593723
 20
-100.4769720122
 10
179.6293397523
 20
-100.4095280942
 10
181.079881975
 20
-100.2074851455
 10
182.517974596
 20
-99.8717083449
 10
183.9374594819
 20
-99.4036355403
 10
185.3322581805
 20
-98.8052710913
 10
186.6963979496
 20
-98.0791772863
 10
188.0240373333
 20
-97.2284633705
 10
189.309491176
 20
-96.2567722314
 10
190.5472549669
 20
-95.1682647998
 10
191.7320284115
 20
-93.9676022314
 10
192.858738128
 20
-92.6599259478
 10
193.9225593723
 20
-91.2508356196
 10
194.9189366987
 20
-89.7463651879
 10
195.8436034664
 20
-88.152957026
 10
196.6926001104
 20
-86.4774343523
 10
197.4622910967
 20
-84.7269720122
 10
198.1493804904
 20
-82.9090657541
 10
198.7509260691
 20
-81.0315001317
 10
199.2643519224
 20
-79.1023151693
 10
199.6874594819
 20
-77.129771933
 10
200.0184369361
 20
-75.1223171557
 10
200.2558669888
 20
-73.0885470672
 10
200.3987329279
 20
-71.037170583
 10
200.4464229797
 20
-68.9769720122
 10
200.3987329279
 20
-66.9167734415
 10
200.2558669888
 20
-64.8653969573
 10
200.0184369361
 20
-62.8316268687
 10
199.6874594819
 20
-60.8241720915
 10
199.2643519224
 20
-58.8516288552
 10
198.7509260691
 20
-56.9224438927
 10
198.1493804904
 20
-55.0448782703
 10
197.4622910967
 20
-53.2269720122
 10
196.6926001104
 20
-51.4765096721
 10
195.8436034664
 20
-49.8009869985
 10
194.9189366987
 20
-48.2075788366
 10
193.9225593723
 20
-46.7031084049
 10
192.858738128
 20
-45.2940180766
 10
191.7320284115
 20
-43.9863417931
 10
190.5472549669
 20
-42.7856792247
 10
189.309491176
 20
-41.697171793
 10
188.0240373333
 20
-40.7254806539
 10
186.6963979496
 20
-39.8747667381
 10
185.3322581805
 20
-39.1486729331
 10
183.9374594819
 20
-38.5503084841
 10
182.517974596
 20
-38.0822356795
 10
181.079881975
 20
-37.746458879
 10
179.6293397523
 20
-37.5444159302
 10
178.1725593723
 20
-37.4769720122
 10
176.7157789924
 20
-37.5444159302
 10
175.2652367696
 20
-37.746458879
 10
173.8271441486
 20
-38.0822356795
 10
172.4076592627
 20
-38.5503084841
 10
171.0128605641
 20
-39.1486729331
 10
169.648720795
 20
-39.8747667381
 10
168.3210814113
 20
-40.7254806539
 10
167.0356275686
 20
-41.697171793
 10
165.7978637777
 20
-42.7856792247
 10
164.6130903331
 20
-43.9863417931
 10
163.4863806167
 20
-45.2940180766
 10
162.4225593723
 20
-46.7031084049
 10
161.4261820459
 20
-48.2075788366
 10
160.5015152782
 20
-49.8009869985
 10
159.6525186342
 20
-51.4765096721
 10
158.8828276479
 20
-53.2269720122
 10
158.1957382542
 20
-55.0448782703
 10
157.5941926755
 20
-56.9224438927
 10
157.0807668222
 20
-58.8516288552
 10
156.6576592627
 20
-60.8241720915
 10
156.3266818085
 20
-62.8316268687
 10
156.0892517558
 20
-64.8653969573
 10
155.9463858167
 20
-66.9167734415
 10
155.8986957649
 20
-68.9769720122
 10
155.9463858167
 20
-71.037170583
 10
156.0892517558
 20
-73.0885470672
 10
156.3266818085
 20
-75.1223171557
 10
156.6576592627
 20
-77.129771933
 10
157.0807668222
 20
-79.1023151693
 10
157.5941926755
 20
-81.0315001317
 10
158.1957382542
 20
-82.9090657541
 10
158.8828276479
 20
-84.7269720122
 10
159.6525186342
 20
-86.4774343523
 10
160.5015152782
 20
-88.152957026
 10
161.4261820459
 20
-89.7463651879
 10
162.4225593723
 20
-91.2508356196
 10
163.4863806167
 20
-92.6599259478
 10
164.6130903331
 20
-93.9676022314
 10
165.7978637777
 20
-95.1682647998
 10
167.0356275686
 20
-96.2567722314
 10
168.3210814113
 20
-97.2284633705
 10
169.648720795
 20
-98.0791772863
 10
171.0128605641
 20
-98.8052710913
 10
172.4076592627
 20
-99.4036355403
 10
173.8271441486
 20
-99.8717083449
 10
175.2652367696
 20
-100.2074851455
 10
176.7157789924
 20
-100.4095280942
 10
178.1725593723
 20
-100.4769720122
  0
LWPOLYLINE
  5
101
330
1F
100
AcDbEntity
  8
0
  6
Continuous
 62
     7
370
    25
100
AcDbPolyline
 90
       86
 70
   128
 43
0.0
 10
178.1725593723
 20
-93.9769720122
 10
176.8670187977
 20
-93.9087013469
 10
175.568608633
 20
-93.7042622215
 10
174.2844203442
 20
-93.3647712117
 10
173.0214677225
 20
-92.8920824997
 10
171.7866485771
 20
-92.2887777473
 10
170.5867070621
 20
-91.5581519959
 10
169.4281968418
 20
-90.7041956699
 10
168.3174452973
 20
-89.7315727826
 10
167.2605189685
 20
-88.6455954631
 10
166.2631904204
 20
-87.4521949427
 10
165.3309067156
 20
-86.1578891615
 10
164.4687596645
 20
-84.7697471686
 10
163.6814580154
 20
-83.2953505142
 10
162.9733017368
 20
-81.7427518418
 10
162.3481585327
 20
-80.1204309066
 10
161.8094427185
 20
-78.4372482633
 10
161.3600965732
 20
-76.7023968716
 10
161.0025742697
 20
-74.9253518883
 10
160.7388284707
 20
-73.1158189168
 10
160.5702996644
 20
-71.2836809988
 10
160.4979082966
 20
-69.4389446362
 10
160.522049744
 20
-67.5916851393
 10
160.6425921542
 20
-65.751991599
 10
160.8588771665
 20
-63.9299117833
 10
161.1697235072
 20
-62.1353972604
 10
161.5734334412
 20
-60.3782490464
 10
162.0678020449
 20
-58.6680640754
 10
162.6501292485
 20
-57.0141827847
 10
163.3172345827
 20
-55.4256381004
 10
164.0654745495
 20
-53.9111061027
 10
164.8907625216
 20
-52.4788586403
 10
165.7885910624
 20
-51.1367181519
 10
166.7540565437
 20
-49.8920149437
 10
167.7818859279
 20
-48.7515471529
 10
168.8664655672
 20
-47.721543619
 10
170.0018718638
 20
-46.8076298642
 10
171.1819036222
 20
-46.0147973686
 10
172.4001159181
 20
-45.3473763082
 10
173.6498552985
 20
-44.8090119055
 10
174.9242961201
 20
-44.4026445201
 10
176.2164778293
 20
-44.1304935898
 10
177.5193429775
 20
-43.9940455087
 10
178.8257757671
 20
-43.9940455087
 10
180.1286409154
 20
-44.1304935898
 10
181.4208226245
 20
-44.4026445201
 10
182.6952634462
 20
-44.8090119055
 10
183.9450028265
 20
-45.3473763082
 10
185.1632151225
 20
-46.0147973686
 10
186.3432468809
 20
-46.8076298642
 10
187.4786531775
 20
-47.721543619
 10
188.5632328168
 20
-48.7515471529
 10
189.5910622009
 20
-49.8920149437
 10
190.5565276822
 20
-51.1367181519
 10
191.454356223
 20
-52.4788586403
 10
192.2796441952
 20
-53.9111061027
 10
193.0278841619
 20
-55.4256381004
 10
193.6949894961
 20
-57.0141827847
 10
194.2773166997
 20
-58.6680640754
 10
194.7716853035
 20
-60.3782490464
 10
195.1753952375
 20
-62.1353972604
 10
195.4862415781
 20
-63.9299117833
 10
195.7025265904
 20
-65.751991599
 10
195.8230690007
 20
-67.5916851393
 10
195.847210448
 20
-69.4389446362
 10
195.7748190803
 20
-71.2836809988
 10
195.6062902739
 20
-73.1158189168
 10
195.342544475
 20
-74.9253518883
 10
194.9850221714
 20
-76.7023968716
 10
194.5356760261
 20
-78.4372482633
 10
193.996960212
 20
-80.1204309066
 10
193.3718170079
 20
-81.7427518418
 10
192.6636607292
 20
-83.2953505142
 10
191.8763590801
 20
-84.7697471686
 10
191.014212029
 20
-86.1578891615
 10
190.0819283243
 20
-87.4521949427
 10
189.0845997761
 20
-88.6455954631
 10
188.0276734473
 20
-89.7315727826
 10
186.9169219029
 20
-90.7041956699
 10
185.7584116826
 20
-91.5581519959
 10
184.5584701675
 20
-92.2887777473
 10
183.3236510222
 20
-92.8920824997
 10
182.0606984005
 20
-93.3647712117
 10
180.7765101117
 20
-93.7042622215
 10
179.478099947
 20
-93.9087013469
 10
178.1725593723
 20
-93.9769720122
  0
SPLINE
  5
102
330
1F
100
AcDbEntity
  8
0
  6
Continuous
 62
     7
370
    25
100
AcDbSpline
210
0.0
220
0.0
230
1.0
 70
     8
 71
     3
 72
    21
 73
    17
 74
     0
 42
0.00000001
 43
0.00000001
 40
0.0
 40
0.0
 40
0.0
 40
0.0
 40
0.0383337252865146
 40
0.1071636072894485
 40
0.1779674427869514
 40
0.2472750027632119
 40
0.3185103391448733
 40
0.3892856681497818
 40
0.4620930154552027
 40
0.5331191578211155
 40
0.6062888242072682
 40
0.6758604856853095
 40
0.7475061748648156
 40
0.8162051966459937
 40
0.8868417904908285
 40
1.0
 40
1.0
 40
1.0
 40
1.0
 10
176.0333273197203
 20
-100.4713512721096
 30
0.0
 10
175.8868811120063
 20
-100.4723091655649
 30
0.0
 10
175.477484326925
 20
-100.4749869986557
 30
0.0
 10
174.6560721447551
 20
-100.432439584727
 30
0.0
 10
173.6221590203876
 20
-100.3531772177893
 30
0.0
 10
172.503344111067
 20
-100.241963667285
 30
0.0
 10
171.3496400886411
 20
-100.1140402041406
 30
0.0
 10
170.1700055025809
 20
-99.9802134242969
 30
0.0
 10
169.0162098875064
 20
-99.85757999847418
 30
0.0
 10
167.9075076005493
 20
-99.75915545641958
 30
0.0
 10
166.9034405892768
 20
-99.6988686056128
 30
0.0
 10
166.0155545659113
 20
-99.68230036471374
 30
0.0
 10
165.2848096021664
 20
-99.71050017607628
 30
0.0
 10
164.7159531369743
 20
-99.77979406056937
 30
0.0
 10
164.2236307272385
 20
-99.90193046714225
 30
0.0
 10
164.1480344437578
 20
-100.015642564494
 30
0.0
 10
164.1014915604545
 20
-100.0856524728322
 30
0.0
  0
LINE
  5
103
330
1F
100
AcDbEntity
  8
0
  6
Continuous
 62
     7
370
    25
100
AcDbLine
 10
164.1014915605
 20
-115.4769720122
 30
0.0
 11
178.1014915605
 21
-115.4769720122
 31
0.0
  0
ARC
  5
104
330
1F
100
AcDbEntity
  8
0
  6
Continuous
 62
     7
370
    25
100
AcDbCircle
 10
126.8100776381
 20
-68.9769720122
 30
0.0
 40
31.5
100
AcDbArc
 50
90.0
 51
270.0
  0
LINE
  5
105
330
1F
100
AcDbEntity
  8
0
  6
Continuous
 62
     7
370
    25
100
AcDbLine
 10
119.8100776381
 20
-115.4769720122
 30
0.0
 11
133.8100776381
 21
-115.4769720122
 31
0.0
  0
LWPOLYLINE
  5
106
330
1F
100
AcDbEntity
  8
0
  6
Continuous
 62
     1
370
    25
100
AcDbPolyline
 90
       49
 70
   128
 43
0.0
 10
137.0613402965
 20
-37.4769720122
 10
135.6045599166
 20
-37.5444159302
 10
134.1540176938
 20
-37.746458879
 10
132.7159250728
 20
-38.0822356795
 10
131.2964401869
 20
-38.5503084841
 10
129.9016414883
 20
-39.1486729331
 10
128.5375017192
 20
-39.8747667381
 10
127.2098623355
 20
-40.7254806539
 10
125.9244084928
 20
-41.697171793
 10
124.6866447019
 20
-42.7856792247
 10
123.5018712574
 20
-43.9863417931
 10
122.3751615409
 20
-45.2940180766
 10
121.3113402965
 20
-46.7031084049
 10
120.3149629701
 20
-48.2075788366
 10
119.3902962024
 20
-49.8009869985
 10
118.5412995584
 20
-51.4765096721
 10
117.7716085721
 20
-53.2269720122
 10
117.0845191785
 20
-55.0448782703
 10
116.4829735997
 20
-56.9224438927
 10
115.9695477464
 20
-58.8516288552
 10
115.5464401869
 20
-60.8241720915
 10
115.2154627327
 20
-62.8316268687
 10
114.9780326801
 20
-64.8653969573
 10
114.8351667409
 20
-66.9167734415
 10
114.7874766892
 20
-68.9769720122
 10
114.8351667409
 20
-71.037170583
 10
114.9780326801
 20
-73.0885470672
 10
115.2154627327
 20
-75.1223171557
 10
115.5464401869
 20
-77.129771933
 10
115.9695477464
 20
-79.1023151693
 10
116.4829735997
 20
-81.0315001317
 10
117.0845191785
 20
-82.9090657541
 10
117.7716085721
 20
-84.7269720122
 10
118.5412995584
 20
-86.4774343523
 10
119.3902962024
 20
-88.152957026
 10
120.3149629701
 20
-89.7463651879
 10
121.3113402965
 20
-91.2508356196
 10
122.3751615409
 20
-92.6599259478
 10
123.5018712574
 20
-93.9676022314
 10
124.6866447019
 20
-95.1682647998
 10
125.9244084928
 20
-96.2567722314
 10
127.2098623355
 20
-97.2284633705
 10
128.5375017192
 20
-98.0791772863
 10
129.9016414883
 20
-98.8052710913
 10
131.2964401869
 20
-99.4036355403
 10
132.7159250728
 20
-99.8717083449
 10
134.1540176938
 20
-100.2074851455
 10
135.6045599166
 20
-100.4095280942
 10
137.0613402965
 20
-100.4769720122
  0
INSERT
  5
112
330
1F
100
AcDbEntity
  8
FORMAT
 62
     7
100
AcDbBlockReference
  2
SW_CENTERMARKSYMBOL_3
 10
126.8100776381
 20
-68.9769720122
 30
0.0
  0
LINE
  5
113
330
1F
100
AcDbEntity
  8
0
  6
Continuous
 62
     7
370
    25
100
AcDbLine
 10
252.9390125106
 20
-72.7477909066
 30
0.0
 11
252.9390125106
 21
-86.7886962919
 31
0.0
  0
LINE
  5
114
330
1F
100
AcDbEntity
  8
0
  6
Continuous
 62
     7
370
    25
100
AcDbLine
 10
252.9390125106
 20
-101.9542230749
 30
0.0
 11
252.9390125106
 21
-120.2215092967
 31
0.0
  0
LINE
  5
115
330
1F
100
AcDbEntity
  8
0
  6
Continuous
 62
     7
370
    25
100
AcDbLine
 10
315.9390125106
 20
-120.2215092967
 30
0.0
 11
315.9390125106
 21
-72.7477909066
 31
0.0
  0
LINE
  5
116
330
1F
100
AcDbEntity
  8
0
  6
Continuous
 62
     7
370
    25
100
AcDbLine
 10
265.9415411065
 20
-93.295053404
 30
0.0
 11
255.0582627496
 21
-87.0122705413
 31
0.0
  0
LINE
  5
117
330
1F
100
AcDbEntity
  8
0
  6
Continuous
 62
     7
370
    25
100
AcDbLine
 10
248.0588316212
 20
-99.1369546147
 30
0.0
 11
258.9419717484
 21
-105.419657679
 31
0.0
  0
LINE
  5
118
330
1F
100
AcDbEntity
  8
0
  6
Continuous
 62
     7
370
    25
100
AcDbLine
 10
293.4779714442
 20
17.7459247774
 30
0.0
 11
291.97723246
 21
15.1465686154
 31
0.0
  0
LINE
  5
119
330
1F
100
AcDbEntity
  8
0
  6
Continuous
 62
     7
370
    25
100
AcDbLine
 10
284.9772324368
 20
3.0222129579
 30
0.0
 11
264.4079496529
 21
-32.6048297946
 31
0.0
  0
LINE
  5
11A
330
1F
100
AcDbEntity
  8
0
  6
Continuous
 62
     7
370
    25
100
AcDbLine
 10
318.9675500513
 20
-64.1048298639
 30
0.0
 11
348.0375718426
 21
-13.754075292
 31
0.0
  0
SPLINE
  5
11B
330
1F
100
AcDbEntity
  8
0
  6
Continuous
 62
     7
370
    25
100
AcDbSpline
210
0.0
220
0.0
230
1.0
 70
     8
 71
     3
 72
    21
 73
    17
 74
     0
 42
0.00000001
 43
0.00000001
 40
0.0
 40
0.0
 40
0.0
 40
0.0
 40
0.0449425826560935
 40
0.1198421062837746
 40
0.1929978276688041
 40
0.2653559466132201
 40
0.3374166297279632
 40
0.4095927391541938
 40
0.4821323059536925
 40
0.555244356096052
 40
0.6290858619888594
 40
0.7037256718358529
 40
0.779154212255935
 40
0.8552954009974609
 40
0.9320203681516774
 40
1.0
 40
1.0
 40
1.0
 40
1.0
 10
315.9390125105563
 20
-72.74779090664867
 30
0.0
 10
315.9391164225339
 20
-72.7305940081645
 30
0.0
 10
315.939393510087
 20
-72.684737441539
 30
0.0
 10
315.9463178244475
 20
-72.51722446018411
 30
0.0
 10
315.9723813512895
 20
-72.22010495051184
 30
0.0
 10
316.0247246149829
 20
-71.8192719688227
 30
0.0
 10
316.1106356505182
 20
-71.32192830309167
 30
0.0
 10
316.2364669878735
 20
-70.73432169544705
 30
0.0
 10
316.4074574347347
 20
-70.0646287536473
 30
0.0
 10
316.6276170194719
 20
-69.32213963526314
 30
0.0
 10
316.8996614402774
 20
-68.51718999458254
 30
0.0
 10
317.2249448808009
 20
-67.66125006689009
 30
0.0
 10
317.6029672641415
 20
-66.76678911361353
 30
0.0
 10
318.0324532330541
 20
-65.84778855844634
 30
0.0
 10
318.4879300969626
 20
-64.95381962105814
 30
0.0
 10
318.8142505434076
 20
-64.37618994972394
 30
0.0
 10
318.9675500512796
 20
-64.10482986391716
 30
0.0
  0
SPLINE
  5
11C
330
1F
100
AcDbEntity
  8
0
  6
Continuous
 62
     7
370
    25
100
AcDbSpline
210
0.0
220
0.0
230
1.0
 70
     8
 71
     3
 72
    23
 73
    19
 74
     0
 42
0.00000001
 43
0.00000001
 40
0.0
 40
0.0
 40
0.0
 40
0.0
 40
0.0380109455486394
 40
0.1040404113637818
 40
0.1701520920074293
 40
0.2363899676408317
 40
0.3028008845373406
 40
0.3694288485575253
 40
0.4363130709547297
 40
0.5034854970604461
 40
0.5709677022461134
 40
0.6387671184719877
 40
0.7068727085449296
 40
0.7752504602315442
 40
0.8438394264038199
 40
0.9125356057326054
 40
0.9811890028745692
 40
1.0
 40
1.0
 40
1.0
 40
1.0
 10
264.4079496528915
 20
-32.6048297945805
 30
0.0
 10
264.1363892153389
 20
-33.08105959851988
 30
0.0
 10
263.3930964814879
 20
-34.38455636742149
 30
0.0
 10
262.240678678553
 20
-36.55076367192711
 30
0.0
 10
260.973906954223
 20
-39.11126731030846
 30
0.0
 10
259.7894382287062
 20
-41.71041957817415
 30
0.0
 10
258.688063161456
 20
-44.3449735297683
 30
0.0
 10
257.67255327947
 20
-47.01279021627206
 30
0.0
 10
256.7454833923094
 20
-49.71136779715012
 30
0.0
 10
255.9098526010531
 20
-52.43809873354243
 30
0.0
 10
255.1689288213283
 20
-55.19004306290138
 30
0.0
 10
254.5262917449957
 20
-57.96379387731751
 30
0.0
 10
253.9857383392626
 20
-60.75529317568567
 30
0.0
 10
253.5513507385592
 20
-63.55962263374884
 30
0.0
 10
253.2268090493592
 20
-66.37072436404002
 30
0.0
 10
253.0172926921607
 20
-69.18076905895596
 30
0.0
 10
252.9443704659093
 20
-71.30592455167003
 30
0.0
 10
252.9399608814014
 20
-72.49257713134952
 30
0.0
 10
252.9390125105563
 20
-72.74779090664869
 30
0.0
  0
LINE
  5
11D
330
1F
100
AcDbEntity
  8
0
  6
Continuous
 62
     7
370
    25
100
AcDbLine
 10
296.9875921753
 20
12.2541495186
 30
0.0
 11
286.3770218825
 21
18.3795013668
 31
0.0
  0
LINE
  5
11E
330
1F
100
AcDbEntity
  8
0
  6
Continuous
 62
     7
370
    25
100
AcDbLine
 10
279.377590754
 20
6.2548172935
 30
0.0
 11
289.9876990905
 21
0.1297321269
 31
0.0
  0
LWPOLYLINE
  5
11F
330
1F
100
AcDbEntity
  8
0
  6
Continuous
 62
     7
370
    25
100
AcDbPolyline
 90
       97
 70
   128
 43
0.0
 10
262.1651489032
 20
-107.3630815355
 10
263.6696193349
 20
-106.5496310038
 10
265.2630274968
 20
-105.7947255539
 10
266.9385501704
 20
-105.1015978068
 10
268.6890125106
 20
-104.473215842
 10
270.5069187687
 20
-103.9122704875
 10
272.3844843911
 20
-103.4211637974
 10
274.3136693535
 20
-103.0019987659
 10
276.2862125898
 20
-102.6565703222
 10
278.293667367
 20
-102.3863576437
 10
280.3274374556
 20
-102.1925178228
 10
282.3788139398
 20
-102.0758809111
 10
284.4390125106
 20
-102.036946366
 10
286.4992110813
 20
-102.0758809111
 10
288.5505875655
 20
-102.1925178228
 10
290.5843576541
 20
-102.3863576437
 10
292.5918124313
 20
-102.6565703222
 10
294.5643556676
 20
-103.0019987659
 10
296.4935406301
 20
-103.4211637974
 10
298.3711062525
 20
-103.9122704875
 10
300.1890125106
 20
-104.473215842
 10
301.9394748507
 20
-105.1015978068
 10
303.6149975243
 20
-105.7947255539
 10
305.2084056862
 20
-106.5496310038
 10
306.7128761179
 20
-107.3630815355
 10
308.1219664461
 20
-108.2315938289
 10
309.4296427297
 20
-109.1514487811
 10
310.6303052981
 20
-110.118707432
 10
311.7188127298
 20
-111.1292278314
 10
312.6905038688
 20
-112.1786827759
 10
313.5412177847
 20
-113.2625783383
 10
314.2673115897
 20
-114.3762731115
 10
314.8656760387
 20
-115.5149980834
 10
315.3337488433
 20
-116.6738770588
 10
315.6695256438
 20
-117.8479475402
 10
315.8715685926
 20
-119.0321819774
 10
315.9390125106
 20
-120.2215092967
 10
315.8715685926
 20
-121.4108366161
 10
315.6695256438
 20
-122.5950710533
 10
315.3337488433
 20
-123.7691415346
 10
314.8656760387
 20
-124.9280205101
 10
314.2673115897
 20
-126.0667454819
 10
313.5412177847
 20
-127.1804402551
 10
312.6905038688
 20
-128.2643358175
 10
311.7188127298
 20
-129.3137907621
 10
310.6303052981
 20
-130.3243111615
 10
309.4296427297
 20
-131.2915698123
 10
308.1219664461
 20
-132.2114247645
 10
306.7128761179
 20
-133.0799370579
 10
305.2084056862
 20
-133.8933875896
 10
303.6149975243
 20
-134.6482930395
 10
301.9394748507
 20
-135.3414207866
 10
300.1890125106
 20
-135.9698027514
 10
298.3711062525
 20
-136.5307481059
 10
296.4935406301
 20
-137.0218547961
 10
294.5643556676
 20
-137.4410198275
 10
292.5918124313
 20
-137.7864482713
 10
290.5843576541
 20
-138.0566609497
 10
288.5505875655
 20
-138.2505007707
 10
286.4992110813
 20
-138.3671376823
 10
284.4390125106
 20
-138.4060722274
 10
282.3788139398
 20
-138.3671376823
 10
280.3274374556
 20
-138.2505007707
 10
278.293667367
 20
-138.0566609497
 10
276.2862125898
 20
-137.7864482713
 10
274.3136693535
 20
-137.4410198275
 10
272.3844843911
 20
-137.0218547961
 10
270.5069187687
 20
-136.5307481059
 10
268.6890125106
 20
-135.9698027514
 10
266.9385501704
 20
-135.3414207866
 10
265.2630274968
 20
-134.6482930395
 10
263.6696193349
 20
-133.8933875896
 10
262.1651489032
 20
-133.0799370579
 10
260.756058575
 20
-132.2114247645
 10
259.4483822914
 20
-131.2915698123
 10
258.247719723
 20
-130.3243111615
 10
257.1592122913
 20
-129.3137907621
 10
256.1875211523
 20
-128.2643358175
 10
255.3368072365
 20
-127.1804402551
 10
254.6107134315
 20
-126.0667454819
 10
254.0123489825
 20
-124.9280205101
 10
253.5442761779
 20
-123.7691415346
 10
253.2084993773
 20
-122.5950710533
 10
253.0064564285
 20
-121.4108366161
 10
252.9390125106
 20
-120.2215092967
 10
253.0064564285
 20
-119.0321819774
 10
253.2084993773
 20
-117.8479475402
 10
253.5442761779
 20
-116.6738770588
 10
254.0123489825
 20
-115.5149980834
 10
254.6107134315
 20
-114.3762731115
 10
255.3368072365
 20
-113.2625783383
 10
256.1875211523
 20
-112.1786827759
 10
257.1592122913
 20
-111.1292278314
 10
258.247719723
 20
-110.118707432
 10
259.4483822914
 20
-109.1514487811
 10
260.756058575
 20
-108.2315938289
 10
262.1651489032
 20
-107.3630815355
  0
LINE
  5
120
330
1F
100
AcDbEntity
  8
0
  6
Continuous
 62
     7
370
    25
100
AcDbLine
 10
315.9390125106
 20
-72.7477909066
 30
0.0
 11
315.9389210626
 21
-72.7916085646
 31
0.0
  0
SPLINE
  5
121
330
1F
100
AcDbEntity
  8
0
  6
Continuous
 62
     7
370
    25
100
AcDbSpline
210
0.0
220
0.0
230
1.0
 70
     8
 71
     3
 72
    27
 73
    23
 74
     0
 42
0.00000001
 43
0.00000001
 40
0.0
 40
0.0
 40
0.0
 40
0.0
 40
0.0145903800489534
 40
0.0681650282491821
 40
0.1223243566329955
 40
0.176477433903636
 40
0.2297529166808154
 40
0.2830269108234204
 40
0.3353622007000345
 40
0.3877023194883671
 40
0.4404364008295139
 40
0.4931743594542386
 40
0.5470486315195084
 40
0.6009195774335002
 40
0.6549602249891547
 40
0.7089946707700551
 40
0.7618892196610794
 40
0.8147847174983666
 40
0.8670278667140684
 40
0.9192767412063453
 40
0.9723561496475069
 40
1.0
 40
1.0
 40
1.0
 40
1.0
 10
258.9523350370358
 20
-105.4025741841929
 30
0.0
 10
258.9942874852073
 20
-105.4333427056115
 30
0.0
 10
259.1902857940344
 20
-105.5770906494382
 30
0.0
 10
259.6400501589376
 20
-105.6653710525395
 30
0.0
 10
260.2998764798082
 20
-105.6541206998019
 30
0.0
 10
261.0440860183396
 20
-105.4617191899117
 30
0.0
 10
261.8461945820936
 20
-105.1088556617832
 30
0.0
 10
262.6785538037518
 20
-104.6141944059301
 30
0.0
 10
263.5216427033255
 20
-103.9889145874069
 30
0.0
 10
264.350291731988
 20
-103.2546809529723
 30
0.0
 10
265.1419631780334
 20
-102.4211403271138
 30
0.0
 10
265.8758504921438
 20
-101.5031732630434
 30
0.0
 10
266.5188224131484
 20
-100.5184823623165
 30
0.0
 10
267.0476911614891
 20
-99.48858668372898
 30
0.0
 10
267.428856969818
 20
-98.44300744258763
 30
0.0
 10
267.6495231905531
 20
-97.41613237290807
 30
0.0
 10
267.6943582367263
 20
-96.43740065242464
 30
0.0
 10
267.5739097386502
 20
-95.53645884515859
 30
0.0
 10
267.2903892612205
 20
-94.73209935229009
 30
0.0
 10
266.8579499807326
 20
-94.04992467533691
 30
0.0
 10
266.3962491559518
 20
-93.56714823150283
 30
0.0
 10
266.0484035251569
 20
-93.38019679554073
 30
0.0
 10
265.9292830547105
 20
-93.31617488170632
 30
0.0
  0
LWPOLYLINE
  5
122
330
1F
100
AcDbEntity
  8
0
  6
Continuous
 62
     7
370
    25
100
AcDbPolyline
 90
       86
 70
   128
 43
0.0
 10
266.7613429809
 20
-110.0164078989
 10
265.5040770567
 20
-110.7979487928
 10
264.3502271838
 20
-111.6309579063
 10
263.3060952902
 20
-112.5108856326
 10
262.3773840622
 20
-113.4329261114
 10
261.5691657984
 20
-114.3920434776
 10
260.8858547067
 20
-115.3829993645
 10
260.3311827953
 20
-116.4003815149
 10
259.90817949
 20
-117.4386333401
 10
259.619155088
 20
-118.4920842688
 10
259.4656881405
 20
-119.5549807173
 10
259.4486168306
 20
-120.6215175137
 10
259.568034396
 20
-121.685869604
 10
259.8232886193
 20
-122.7422238661
 10
260.2129853904
 20
-123.7848108593
 10
260.7349963208
 20
-124.807936335
 10
261.3864703677
 20
-125.8060123367
 10
262.1638494058
 20
-126.7735877193
 10
263.0628876605
 20
-127.7053779217
 10
264.0786748964
 20
-128.5962938288
 10
265.205663236
 20
-129.4414695669
 10
266.4376974597
 20
-130.2362890793
 10
267.7680486239
 20
-130.9764113373
 10
269.1894508119
 20
-131.6577940499
 10
270.6941408177
 20
-132.2767157409
 10
272.2739005464
 20
-132.8297960748
 10
273.9201018981
 20
-133.3140143185
 10
275.6237538919
 20
-133.7267258398
 10
277.3755517714
 20
-134.0656765516
 10
279.1659278241
 20
-134.3290152226
 10
280.9851036368
 20
-134.5153035884
 10
282.823143502
 20
-134.6235242064
 10
284.6700086834
 20
-134.6530860131
 10
286.5156122438
 20
-134.6038275523
 10
288.3498741366
 20
-134.4760178566
 10
290.1627762593
 20
-134.2703549782
 10
291.9444171693
 20
-133.9879621764
 10
293.6850661617
 20
-133.6303817828
 10
295.3752164153
 20
-133.1995667775
 10
297.0056369156
 20
-132.6978701226
 10
298.5674228711
 20
-132.1280319114
 10
300.0520443486
 20
-131.4931644025
 10
301.4513928603
 20
-130.7967350221
 10
302.7578256499
 20
-130.0425474259
 10
303.9642074347
 20
-129.2347207252
 10
305.0639493755
 20
-128.3776669892
 10
306.0510450633
 20
-127.4760671482
 10
306.9201033238
 20
-126.5348454278
 10
307.666377662
 20
-125.5591424548
 10
308.2857921864
 20
-124.5542871804
 10
308.7749638696
 20
-123.5257677758
 10
309.1312210254
 20
-122.4792016571
 10
309.3526179009
 20
-121.4203048056
 10
309.4379453031
 20
-120.3548605488
 10
309.3867372033
 20
-119.2886879737
 10
309.1992732824
 20
-118.2276101452
 10
308.8765774033
 20
-117.1774223024
 10
308.4204120191
 20
-116.1438602072
 10
307.8332685467
 20
-115.1325688173
 10
307.1183537604
 20
-114.1490714556
 10
306.2795722767
 20
-113.1987396437
 10
305.3215052293
 20
-112.2867637642
 10
304.249385248
 20
-111.4181247134
 10
303.0690678806
 20
-110.5975666964
 10
301.7869996111
 20
-109.8295713165
 10
300.4101826519
 20
-109.1183330983
 10
298.9461366996
 20
-108.4677365782
 10
297.4028578658
 20
-107.8813350888
 10
295.788775004
 20
-107.3623313517
 10
294.1127036754
 20
-106.9135599853
 10
292.3837980001
 20
-106.5374720233
 10
290.6115006615
 20
-106.2361215276
 10
288.8054913331
 20
-106.0111543702
 10
286.9756338115
 20
-105.8637992436
 10
285.131922144
 20
-105.7948609505
 10
283.2844260444
 20
-105.804716008
 10
281.4432358957
 20
-105.893310591
 10
279.61840764
 20
-106.0601608267
 10
277.8199078564
 20
-106.3043554371
 10
276.0575593272
 20
-106.6245607157
 10
274.3409873888
 20
-107.0190278125
 10
272.6795673619
 20
-107.4856022849
 10
271.0823733465
 20
-108.0217358649
 10
269.5581286626
 20
-108.6245003769
 10
268.115158206
 20
-109.2906037301
 10
266.7613429809
 20
-110.0164078989
  0
LWPOLYLINE
  5
123
330
1F
100
AcDbEntity
  8
0
  6
Continuous
 62
     7
370
    25
100
AcDbPolyline
 90
       46
 70
   128
 43
0.0
 10
246.6087997171
 20
-95.9320409694
 10
246.6569703192
 20
-95.1087490547
 10
246.8005445395
 20
-94.2458649874
 10
247.0367278692
 20
-93.3601838241
 10
247.3609232684
 20
-92.4689443414
 10
247.7668206424
 20
-91.589493502
 10
248.2465196606
 20
-90.7389488161
 10
248.7906835271
 20
-89.9338651686
 10
249.3887207114
 20
-89.1899125968
 10
250.0289910998
 20
-88.5215712914
 10
250.6990325576
 20
-87.9418497556
 10
251.3858034899
 20
-87.4620316097
 10
252.0759366818
 20
-87.0914559682
 10
252.7559994757
 20
-86.8373356643
 10
253.4127552228
 20
-86.7046168607
 10
254.0334209195
 20
-86.6958827781
 10
254.6059160142
 20
-86.8113034152
 10
255.119097541
 20
-87.0486322409
 10
255.5629770051
 20
-87.4032499193
 10
255.9289147978
 20
-87.8682542208
 10
256.2097883561
 20
-88.4345943656
 10
256.4001307957
 20
-89.0912471869
 10
256.4962373176
 20
-89.8254316846
 10
256.4962373176
 20
-90.6228577925
 10
256.4001307957
 20
-91.4680045184
 10
256.2097883561
 20
-92.3444220428
 10
255.9289147978
 20
-93.2350518953
 10
255.5629770051
 20
-94.122558979
 10
255.119097541
 20
-94.989668978
 10
254.6059160142
 20
-95.8195045826
 10
254.0334209195
 20
-96.5959139865
 10
253.4127552228
 20
-97.303785264
 10
252.7559994757
 20
-97.9293405057
 10
252.0759366818
 20
-98.4604039905
 10
251.3858034899
 20
-98.8866391717
 10
250.6990325576
 20
-99.1997498663
 10
250.0289910998
 20
-99.3936417309
 10
249.3887207114
 20
-99.4645408808
 10
248.7906835271
 20
-99.4110673447
 10
248.2465196606
 20
-99.2342619241
 10
247.7668206424
 20
-98.9375659356
 10
247.3609232684
 20
-98.526754229
 10
247.0367278692
 20
-98.0098227868
 10
246.8005445395
 20
-97.3968330916
 10
246.6569703192
 20
-96.6997162906
 10
246.6087997171
 20
-95.9320409694
  0
LWPOLYLINE
  5
124
330
1F
100
AcDbEntity
  8
0
  6
Continuous
 62
     7
370
    25
100
AcDbPolyline
 90
       39
 70
   128
 43
0.0
 10
248.0230132794
 20
-95.1156328575
 10
248.0712333537
 20
-94.4158049993
 10
248.2145782585
 20
-93.679392908
 10
248.4491379186
 20
-92.9264839859
 10
248.7685141579
 20
-92.1776156256
 10
249.163995225
 20
-91.4532150039
 10
249.6247934276
 20
-90.7730418814
 10
250.1383393917
 20
-90.1556496077
 10
250.6906249222
 20
-89.6178790346
 10
251.2665851095
 20
-89.1743991416
 10
251.8505092612
 20
-88.837306904
 10
252.4264694486
 20
-88.6157973194
 10
252.9787549791
 20
-88.5159125918
 10
253.4923009432
 20
-88.5403773162
 10
253.9530991457
 20
-88.6885241586
 10
254.3485802129
 20
-88.9563120594
 10
254.6679564522
 20
-89.3364364628
 10
254.9025161122
 20
-89.8185285659
 10
255.0458610171
 20
-90.3894381529
 10
255.0940810913
 20
-91.0335922984
 10
255.0458610171
 20
-91.7334201567
 10
254.9025161122
 20
-92.4698322479
 10
254.6679564522
 20
-93.2227411701
 10
254.3485802129
 20
-93.9716095303
 10
253.9530991457
 20
-94.6960101521
 10
253.4923009432
 20
-95.3761832746
 10
252.9787549791
 20
-95.9935755483
 10
252.4264694486
 20
-96.5313461214
 10
251.8505092612
 20
-96.9748260144
 10
251.2665851095
 20
-97.3119182519
 10
250.6906249222
 20
-97.5334278365
 10
250.1383393917
 20
-97.6333125642
 10
249.6247934276
 20
-97.6088478398
 10
249.163995225
 20
-97.4607009974
 10
248.7685141579
 20
-97.1929130965
 10
248.4491379186
 20
-96.8127886932
 10
248.2145782585
 20
-96.3306965901
 10
248.0712333537
 20
-95.7597870031
 10
248.0230132794
 20
-95.1156328575
  0
LWPOLYLINE
  5
125
330
1F
100
AcDbEntity
  8
0
  6
Continuous
 62
     7
370
    25
100
AcDbPolyline
 90
       97
 70
   128
 43
0.0
 10
298.483908036
 20
14.8543525039
 10
299.5616973732
 20
14.2319646485
 10
300.7302515544
 20
13.5571801917
 10
301.9845666514
 20
12.8328886642
 10
303.3192714942
 20
12.0621915935
 10
304.7286506719
 20
11.2483892226
 10
306.2066690064
 20
10.3949663785
 10
307.7469973963
 20
9.5055775485
 10
309.343039919
 20
8.5840312324
 10
310.9879620754
 20
7.6342736329
 10
312.6747200562
 20
6.6603717578
 10
314.3960909049
 20
5.6664960044
 10
316.1447034471
 20
4.6569023015
 10
317.9130698556
 20
3.6359138841
 10
319.6936177138
 20
2.6079027814
 10
321.4787224426
 20
1.5772710948
 10
323.2607399493
 20
0.5484321473
 10
325.0320393615
 20
-0.4742084145
 10
326.7850357032
 20
-1.486271487
 10
328.5122223748
 20
-2.4834232607
 10
330.2062032979
 20
-3.4613937785
 10
331.8597245861
 20
-4.4159952206
 10
333.4657056074
 20
-5.343139837
 10
335.0172693045
 20
-6.2388574522
 10
336.5077716434
 20
-7.0993124657
 10
337.9308300644
 20
-7.9208202773
 10
339.2803508128
 20
-8.6998630642
 10
340.5505550335
 20
-9.4331048457
 10
341.7360035171
 20
-10.1174057678
 10
342.8316199912
 20
-10.7498355491
 10
343.8327128578
 20
-11.327686028
 10
344.7349952836
 20
-11.8484827601
 10
345.5346035567
 20
-12.3099956139
 10
346.2281136318
 20
-12.7102483204
 10
346.8125557922
 20
-13.0475269361
 10
347.2854273669
 20
-13.3203871822
 10
347.6447034471
 20
-13.5276606292
 10
347.8888455576
 20
-13.6684597005
 10
348.0168082444
 20
-13.7421814727
 10
348.0280435516
 20
-13.748510258
 10
347.9225033678
 20
-13.6874189554
 10
347.7006396324
 20
-13.5591691674
 10
347.3634024
 20
-13.3643100792
 10
346.912235772
 20
-13.1036761074
 10
346.3490717134
 20
-12.7783833266
 10
345.676321779
 20
-12.3898246904
 10
344.8968667874
 20
-11.9396640666
 10
344.0140444844
 20
-11.4298291122
 10
343.0316352508
 20
-10.8625030185
 10
341.9538459137
 20
-10.2401151631
 10
340.7852917324
 20
-9.5653307063
 10
339.5309766355
 20
-8.8410391788
 10
338.1962717927
 20
-8.070342108
 10
336.786892615
 20
-7.2565397372
 10
335.3088742805
 20
-6.403116893
 10
333.7685458905
 20
-5.5137280631
 10
332.1725033678
 20
-4.592181747
 10
330.5275812115
 20
-3.6424241475
 10
328.8408232306
 20
-2.6685222723
 10
327.119452382
 20
-1.674646519
 10
325.3708398397
 20
-0.665052816
 10
323.6024734313
 20
0.3559356014
 10
321.821925573
 20
1.3839467041
 10
320.0368208443
 20
2.4145783907
 10
318.2548033375
 20
3.4434173381
 10
316.4835039253
 20
4.4660579
 10
314.7305075837
 20
5.4781209725
 10
313.0033209121
 20
6.4752727461
 10
311.309339989
 20
7.4532432639
 10
309.6558187008
 20
8.407844706
 10
308.0498376795
 20
9.3349893224
 10
306.4982739824
 20
10.2307069376
 10
305.0077716434
 20
11.0911619512
 10
303.5847132224
 20
11.9126697627
 10
302.2351924741
 20
12.6917125496
 10
300.9649882534
 20
13.4249543311
 10
299.7795397698
 20
14.1092552533
 10
298.6839232957
 20
14.7416850345
 10
297.6828304291
 20
15.3195355134
 10
296.7805480033
 20
15.8403322455
 10
295.9809397301
 20
16.3018450993
 10
295.2874296551
 20
16.7020978058
 10
294.7029874947
 20
17.0393764215
 10
294.23011592
 20
17.3122366676
 10
293.8708398397
 20
17.5195101147
 10
293.6266977292
 20
17.6603091859
 10
293.4987350424
 20
17.7340309581
 10
293.4874997353
 20
17.7403597434
 10
293.593039919
 20
17.6792684409
 10
293.8149036544
 20
17.5510186529
 10
294.1521408869
 20
17.3561595647
 10
294.6033075148
 20
17.0955255928
 10
295.1664715735
 20
16.770232812
 10
295.8392215078
 20
16.3816741758
 10
296.6186764995
 20
15.9315135521
 10
297.5014988024
 20
15.4216785976
 10
298.483908036
 20
14.8543525039
  0
SPLINE
  5
126
330
1F
100
AcDbEntity
  8
0
  6
Continuous
 62
     7
370
    25
100
AcDbSpline
210
0.0
220
0.0
230
1.0
 70
     8
 71
     3
 72
    27
 73
    23
 74
     0
 42
0.00000001
 43
0.00000001
 40
0.0
 40
0.0
 40
0.0
 40
0.0
 40
0.0174690745137941
 40
0.0703090519648565
 40
0.1226192357062659
 40
0.174934880842962
 40
0.2280751016568155
 40
0.2812170123170929
 40
0.3353355020455263
 40
0.3894484254760293
 40
0.4431645470882411
 40
0.4968763084414022
 40
0.5493805292536543
 40
0.6018883065772903
 40
0.6542854069998314
 40
0.7066877689260392
 40
0.7602180418019251
 40
0.8137474162764781
 40
0.8679142004076705
 40
0.9220747521982371
 40
0.9754019534882562
 40
0.9999999999999999
 40
0.9999999999999999
 40
0.9999999999999999
 40
0.9999999999999999
 10
289.9989745843785
 20
0.1485655743241748
 30
0.0
 10
290.0593106404452
 20
0.1069968213042866
 30
0.0
 10
290.3021495440173
 20
-0.0603079557108394
 30
0.0
 10
290.8515631426617
 20
-0.1995629157238582
 30
0.0
 10
291.6249752155755
 20
-0.255413883025371
 30
0.0
 10
292.4793857055988
 20
-0.1431863174049391
 30
0.0
 10
293.3813060369392
 20
0.132312952339772
 30
0.0
 10
294.307299129118
 20
0.5703788649503577
 30
0.0
 10
295.2195358977683
 20
1.171240786754193
 30
0.0
 10
296.0842382510592
 20
1.918858774702339
 30
0.0
 10
296.8612852476114
 20
2.797821150686761
 30
0.0
 10
297.5241045255208
 20
3.771642735032207
 30
0.0
 10
298.0497766596621
 20
4.816689087551215
 30
0.0
 10
298.4348236492245
 20
5.896448877986918
 30
0.0
 10
298.6703675382701
 20
6.988020442241019
 30
0.0
 10
298.7641350165547
 20
8.066111019717312
 30
0.0
 10
298.7119988281196
 20
9.097666745061586
 30
0.0
 10
298.524175084382
 20
10.0546130542883
 30
0.0
 10
298.207889756273
 20
10.89724450240788
 30
0.0
 10
297.777922095936
 20
11.58396199126525
 30
0.0
 10
297.3595347706786
 20
12.03547147489421
 30
0.0
 10
297.0674035412309
 20
12.18522397746093
 30
0.0
 10
296.9751887870633
 20
12.23249516526336
 30
0.0
  0
LWPOLYLINE
  5
127
330
1F
100
AcDbEntity
  8
0
  6
Continuous
 62
     7
370
    25
100
AcDbPolyline
 90
       86
 70
   128
 43
0.0
 10
303.0801021138
 20
12.2010261405
 10
302.2052201708
 20
12.706257981
 10
301.4316658304
 20
13.1529936955
 10
300.7636639782
 20
13.5387933682
 10
300.2048630088
 20
13.8615498953
 10
299.7583148991
 20
14.1195004925
 10
299.4264585401
 20
14.311236323
 10
299.2111064163
 20
14.4357101922
 10
299.1134347061
 20
14.4922422671
 10
299.1339768586
 20
14.4805237891
 10
299.2726206797
 20
14.4006187604
 10
299.528608945
 20
14.2529635945
 10
299.9005435352
 20
14.0383647328
 10
300.3863930727
 20
13.7579942399
 10
300.9835040157
 20
13.4133834021
 10
301.6886151514
 20
13.0064143644
 10
302.4978754071
 20
12.5393098505
 10
303.4068648841
 20
12.0146210233
 10
304.410618997
 20
11.4352135512
 10
305.503655589
 20
10.8042519569
 10
306.6800048731
 20
10.1251823338
 10
307.9332420376
 20
9.4017135248
 10
309.2565223355
 20
8.6377968655
 10
310.6426184689
 20
7.837604604
 10
312.0839600613
 20
7.0055071127
 10
313.5726750048
 20
6.1460490198
 10
315.1006324544
 20
5.2639243871
 10
316.6594872366
 20
4.3639510737
 10
318.2407254271
 20
3.4510444216
 10
319.8357108511
 20
2.5301904104
 10
321.4357322515
 20
1.6064184255
 10
323.0320508661
 20
0.6847737889
 10
324.6159481562
 20
-0.2297097958
 10
326.1787734241
 20
-1.1320377365
 10
327.7119910602
 20
-2.0172818307
 10
329.2072271613
 20
-2.8806071824
 10
330.6563152665
 20
-3.7172986077
 10
332.0513409589
 20
-4.5227863882
 10
333.3846850919
 20
-5.2926712291
 10
334.6490654024
 20
-6.0227482862
 10
335.8375762835
 20
-6.7090301319
 10
336.9437265009
 20
-7.3477685327
 10
337.9614746456
 20
-7.935474921
 10
338.8852621304
 20
-8.4689394482
 10
339.7100435481
 20
-8.9452485161
 10
340.4313142289
 20
-9.3618006898
 10
341.0451348423
 20
-9.7163209057
 10
341.5481529129
 20
-10.0068728974
 10
341.9376211306
 20
-10.2318697705
 10
342.211412355
 20
-10.3900826703
 10
342.3680312333
 20
-10.4806474927
 10
342.4066223675
 20
-10.5030696041
 10
342.3269749863
 20
-10.4572265427
 10
342.129524096
 20
-10.3433686873
 10
341.815348105
 20
-10.1621178901
 10
341.3861629335
 20
-9.9144640802
 10
340.8443126421
 20
-9.6017598566
 10
340.1927566292
 20
-9.2257131016
 10
339.4350534678
 20
-8.788377652
 10
338.5753414698
 20
-8.2921420823
 10
337.6183160841
 20
-7.7397166593
 10
336.5692042514
 20
-7.134118539
 10
335.4337358567
 20
-6.4786552884
 10
334.2181124347
 20
-5.7769068203
 10
332.928973299
 20
-5.0327058417
 10
331.5733592805
 20
-4.2501169201
 10
330.1586742728
 20
-3.4334142849
 10
328.6926447949
 20
-2.5870584827
 10
327.1832777915
 20
-1.7156720154
 10
325.6388169017
 20
-0.8240140936
 10
324.0676974352
 20
0.0830453562
 10
322.4785003019
 20
1.0005522899
 10
320.8799051454
 20
1.9234956027
 10
319.280642938
 20
2.8468344984
 10
317.6894482954
 20
3.7655260201
 10
316.1150117709
 20
4.6745525933
 10
314.5659323909
 20
5.56894943
 10
313.0506706896
 20
6.4438316449
 10
311.5775025012
 20
7.2944209347
 10
310.1544737594
 20
8.1160716756
 10
308.7893565538
 20
8.9042962963
 10
307.489606681
 20
9.6547897873
 10
306.2623229242
 20
10.3634532132
 10
305.1142082818
 20
11.0264161002
 10
304.0515333576
 20
11.640057575
 10
303.0801021138
 20
12.2010261405
  0
LWPOLYLINE
  5
128
330
1F
100
AcDbEntity
  8
0
  6
Continuous
 62
     7
370
    25
100
AcDbPolyline
 90
       46
 70
   128
 43
0.0
 10
277.9275588499
 20
9.4597309388
 10
277.9757294521
 20
10.2830228534
 10
278.1193036724
 20
11.1459069208
 10
278.3554870021
 20
12.031588084
 10
278.6796824013
 20
12.9228275667
 10
279.0855797753
 20
13.8022784061
 10
279.5652787935
 20
14.652823092
 10
280.10944266
 20
15.4579067396
 10
280.7074798443
 20
16.2018593113
 10
281.3477502327
 20
16.8702006168
 10
282.0177916905
 20
17.4499221526
 10
282.7045626228
 20
17.9297402984
 10
283.3946958147
 20
18.30031594
 10
284.0747586085
 20
18.5544362439
 10
284.7315143556
 20
18.6871550474
 10
285.3521800524
 20
18.6958891301
 10
285.9246751471
 20
18.5804684929
 10
286.4378566738
 20
18.3431396673
 10
286.881736138
 20
17.9885219888
 10
287.2476739307
 20
17.5235176873
 10
287.528547489
 20
16.9571775426
 10
287.7188899286
 20
16.3005247212
 10
287.8149964505
 20
15.5663402235
 10
287.8149964505
 20
14.7689141157
 10
287.7188899286
 20
13.9237673897
 10
287.528547489
 20
13.0473498654
 10
287.2476739307
 20
12.1567200129
 10
286.881736138
 20
11.2692129291
 10
286.4378566738
 20
10.4021029301
 10
285.9246751471
 20
9.5722673256
 10
285.3521800524
 20
8.7958579216
 10
284.7315143556
 20
8.0879866442
 10
284.0747586085
 20
7.4624314024
 10
283.3946958147
 20
6.9313679176
 10
282.7045626228
 20
6.5051327364
 10
282.0177916905
 20
6.1920220418
 10
281.3477502327
 20
5.9981301773
 10
280.7074798443
 20
5.9272310274
 10
280.10944266
 20
5.9807045635
 10
279.5652787935
 20
6.157509984
 10
279.0855797753
 20
6.4542059725
 10
278.6796824013
 20
6.8650176792
 10
278.3554870021
 20
7.3819491214
 10
278.1193036724
 20
7.9949388165
 10
277.9757294521
 20
8.6920556175
 10
277.9275588499
 20
9.4597309388
  0
LWPOLYLINE
  5
129
330
1F
100
AcDbEntity
  8
0
  6
Continuous
 62
     7
370
    25
100
AcDbPolyline
 90
       39
 70
   128
 43
0.0
 10
279.3417724123
 20
10.2761390506
 10
279.3899924866
 20
10.9759669088
 10
279.5333373914
 20
11.7123790001
 10
279.7678970515
 20
12.4652879222
 10
280.0872732907
 20
13.2141562825
 10
280.4827543579
 20
13.9385569042
 10
280.9435525604
 20
14.6187300268
 10
281.4570985245
 20
15.2361223005
 10
282.009384055
 20
15.7738928735
 10
282.5853442424
 20
16.2173727665
 10
283.1692683941
 20
16.5544650041
 10
283.7452285815
 20
16.7759745887
 10
284.297514112
 20
16.8758593163
 10
284.8110600761
 20
16.851394592
 10
285.2718582786
 20
16.7032477495
 10
285.6673393458
 20
16.4354598487
 10
285.986715585
 20
16.0553354453
 10
286.2212752451
 20
15.5732433422
 10
286.3646201499
 20
15.0023337553
 10
286.4128402242
 20
14.3581796097
 10
286.3646201499
 20
13.6583517515
 10
286.2212752451
 20
12.9219396602
 10
285.986715585
 20
12.1690307381
 10
285.6673393458
 20
11.4201623778
 10
285.2718582786
 20
10.6957617561
 10
284.8110600761
 20
10.0155886335
 10
284.297514112
 20
9.3981963598
 10
283.7452285815
 20
8.8604257868
 10
283.1692683941
 20
8.4169458938
 10
282.5853442424
 20
8.0798536562
 10
282.009384055
 20
7.8583440716
 10
281.4570985245
 20
7.758459344
 10
280.9435525604
 20
7.7829240683
 10
280.4827543579
 20
7.9310709108
 10
280.0872732907
 20
8.1988588116
 10
279.7678970515
 20
8.578983215
 10
279.5333373914
 20
9.0610753181
 10
279.3899924866
 20
9.631984905
 10
279.3417724123
 20
10.2761390506
  0
LWPOLYLINE
  5
12A
330
1F
100
AcDbEntity
  8
0
  6
Continuous
 62
     1
370
    25
100
AcDbPolyline
 90
       37
 70
   128
 43
0.0
 10
262.1651489032
 20
-59.8893631454
 10
263.6696193349
 20
-59.0759126137
 10
265.2630274968
 20
-58.3210071638
 10
266.9385501704
 20
-57.6278794168
 10
268.6890125106
 20
-56.999497452
 10
270.5069187687
 20
-56.4385520974
 10
272.3844843911
 20
-55.9474454073
 10
274.3136693535
 20
-55.5282803759
 10
276.2862125898
 20
-55.1828519321
 10
278.293667367
 20
-54.9126392537
 10
280.3274374556
 20
-54.7187994327
 10
282.3788139398
 20
-54.6021625211
 10
284.4390125106
 20
-54.563227976
 10
286.4992110813
 20
-54.6021625211
 10
288.5505875655
 20
-54.7187994327
 10
290.5843576541
 20
-54.9126392537
 10
292.5918124313
 20
-55.1828519321
 10
294.5643556676
 20
-55.5282803759
 10
296.4935406301
 20
-55.9474454073
 10
298.3711062525
 20
-56.4385520974
 10
300.1890125106
 20
-56.999497452
 10
301.9394748507
 20
-57.6278794168
 10
303.6149975243
 20
-58.3210071638
 10
305.2084056862
 20
-59.0759126137
 10
306.7128761179
 20
-59.8893631454
 10
308.1219664461
 20
-60.7578754389
 10
309.4296427297
 20
-61.6777303911
 10
310.6303052981
 20
-62.6449890419
 10
311.7188127298
 20
-63.6555094413
 10
312.6905038688
 20
-64.7049643858
 10
313.5412177847
 20
-65.7888599483
 10
314.2673115897
 20
-66.9025547214
 10
314.8656760387
 20
-68.0412796933
 10
315.3337488433
 20
-69.2001586688
 10
315.6695256438
 20
-70.3742291501
 10
315.8715685926
 20
-71.5584635873
 10
315.9390125106
 20
-72.7477909066
  0
LWPOLYLINE
  5
12B
330
1F
100
AcDbEntity
  8
0
  6
Continuous
 62
     1
370
    25
100
AcDbPolyline
 90
       13
 70
   128
 43
0.0
 10
252.9390125106
 20
-72.7477909066
 10
253.0064564285
 20
-71.5584635873
 10
253.2084993773
 20
-70.3742291501
 10
253.5442761779
 20
-69.2001586688
 10
254.0123489825
 20
-68.0412796933
 10
254.6107134315
 20
-66.9025547214
 10
255.3368072365
 20
-65.7888599483
 10
256.1875211523
 20
-64.7049643858
 10
257.1592122913
 20
-63.6555094413
 10
258.247719723
 20
-62.6449890419
 10
259.4483822914
 20
-61.6777303911
 10
260.756058575
 20
-60.7578754389
 10
262.1651489032
 20
-59.8893631454
  0
LWPOLYLINE
  5
12C
330
1F
100
AcDbEntity
  8
0
  6
Continuous
 62
     1
370
    25
100
AcDbPolyline
 90
       40
 70
   128
 43
0.0
 10
269.4138862447
 20
-35.496402068
 10
270.4916755818
 20
-36.1187899234
 10
271.6602297631
 20
-36.7935743802
 10
272.91454486
 20
-37.5178659077
 10
274.2492497028
 20
-38.2885629785
 10
275.6586288805
 20
-39.1023653493
 10
277.136647215
 20
-39.9557881935
 10
278.676975605
 20
-40.8451770234
 10
280.2730181277
 20
-41.7667233395
 10
281.917940284
 20
-42.7164809391
 10
283.6046982649
 20
-43.6903828142
 10
285.3260691135
 20
-44.6842585675
 10
287.0746816558
 20
-45.6938522705
 10
288.8430480642
 20
-46.7148406879
 10
290.6235959225
 20
-47.7428517906
 10
292.4087006513
 20
-48.7734834772
 10
294.190718158
 20
-49.8023224246
 10
295.9620175702
 20
-50.8249629865
 10
297.7150139118
 20
-51.837026059
 10
299.4422005834
 20
-52.8341778326
 10
301.1361815065
 20
-53.8121483504
 10
302.7897027947
 20
-54.7667497925
 10
304.395683816
 20
-55.6938944089
 10
305.9472475131
 20
-56.5896120241
 10
307.4377498521
 20
-57.4500670377
 10
308.8608082731
 20
-58.2715748492
 10
310.2103290214
 20
-59.0506176362
 10
311.4805332421
 20
-59.7838594176
 10
312.6659817257
 20
-60.4681603398
 10
313.7615981998
 20
-61.100590121
 10
314.7626910664
 20
-61.6784406
 10
315.6649734922
 20
-62.1992373321
 10
316.4645817654
 20
-62.6607501858
 10
317.1580918404
 20
-63.0610028923
 10
317.7425340008
 20
-63.398281508
 10
318.2154055755
 20
-63.6711417541
 10
318.5746816558
 20
-63.8784152012
 10
318.8188237663
 20
-64.0192142725
 10
318.9467864531
 20
-64.0929360447
 10
318.9675500513
 20
-64.1048298639
  0
LWPOLYLINE
  5
12D
330
1F
100
AcDbEntity
  8
0
  6
Continuous
 62
     1
370
    25
100
AcDbPolyline
 90
       11
 70
   128
 43
0.0
 10
264.4079496529
 20
-32.6048297946
 10
264.4174779439
 20
-32.6103948285
 10
264.5230181277
 20
-32.6714861311
 10
264.7448818631
 20
-32.7997359191
 10
265.0821190955
 20
-32.9945950073
 10
265.5332857235
 20
-33.2552289791
 10
266.0964497821
 20
-33.58052176
 10
266.7691997165
 20
-33.9690803961
 10
267.5486547081
 20
-34.4192410199
 10
268.4314770111
 20
-34.9290759744
 10
269.4138862447
 20
-35.496402068
  0
ENDSEC
  0
SECTION
  2
OBJECTS
  0
DICTIONARY
  5
C
330
0
100
AcDbDictionary
281
     1
  3
ACAD_GROUP
350
D
  3
ACAD_LAYOUT
350
1A
  3
ACAD_MLINESTYLE
350
17
  3
ACAD_PLOTSETTINGS
350
19
  3
ACAD_PLOTSTYLENAME
350
E
  3
ACAD_SCALELIST
350
47
  3
DWGPROPS
350
12E
  0
DICTIONARY
  5
D
102
{ACAD_REACTORS
330
C
102
}
330
C
100
AcDbDictionary
281
     1
  0
DICTIONARY
  5
1A
102
{ACAD_REACTORS
330
C
102
}
330
C
100
AcDbDictionary
281
     1
  3
Layout1
350
1E
  3
Layout2
350
26
  3
Model
350
22
  0
DICTIONARY
  5
17
102
{ACAD_REACTORS
330
C
102
}
330
C
100
AcDbDictionary
281
     1
  3
Standard
350
18
  0
DICTIONARY
  5
19
102
{ACAD_REACTORS
330
C
102
}
330
C
100
AcDbDictionary
281
     1
  0
ACDBDICTIONARYWDFLT
  5
E
102
{ACAD_REACTORS
330
C
102
}
330
C
100
AcDbDictionary
281
     1
  3
Normal
350
F
100
AcDbDictionaryWithDefault
340
F
  0
DICTIONARY
  5
47
102
{ACAD_REACTORS
330
C
102
}
330
C
100
AcDbDictionary
281
     1
  3
A0
350
48
  3
A1
350
49
  3
A2
350
4A
  3
A3
350
4B
  3
A4
350
4C
  3
A5
350
4D
  3
A6
350
4E
  3
A7
350
4F
  3
A8
350
50
  3
A9
350
51
  3
B0
350
52
  3
B1
350
53
  3
B2
350
54
  3
B3
350
55
  3
B4
350
56
  3
B5
350
57
  3
B6
350
58
  3
B7
350
59
  3
B8
350
5A
  3
B9
350
5B
  3
C0
350
5C
  3
C1
350
5D
  3
C2
350
5E
  3
C3
350
5F
  3
C4
350
60
  3
C5
350
61
  3
C6
350
62
  3
C7
350
63
  3
C8
350
64
  3
C9
350
65
  3
D0
350
66
  3
D1
350
67
  3
D2
350
68
  0
XRECORD
  5
12E
102
{ACAD_REACTORS
330
C
102
}
330
C
100
AcDbXrecord
280
     1
  1
DWGPROPS COOKIE
  2

  3

  4

  6

  7

  8
b.kav
  9

300
=
301
=
302
=
303
=
304
=
305
=
306
=
307
=
308
=
309
=
 40
0.0
 41
2459741.478167083
 42
2459741.478167268
  1

 90
        0
  0
LAYOUT
  5
1E
102
{ACAD_REACTORS
330
1A
102
}
330
1A
100
AcDbPlotSettings
  1

  2
none_device
  4

  6

 40
0.0
 41
0.0
 42
0.0
 43
0.0
 44
0.0
 45
0.0
 46
0.0
 47
0.0
 48
0.0
 49
0.0
140
0.0
141
0.0
142
1.0
143
1.0
 70
   688
 72
     1
 73
     0
 74
     5
  7

 75
    16
147
1.0
148
0.0
149
0.0
100
AcDbLayout
  1
Layout1
 70
     1
 71
     1
 10
0.0
 20
0.0
 11
420.0
 21
297.0
 12
0.0
 22
0.0
 32
0.0
 14
1.0000000000E+20
 24
1.0000000000E+20
 34
1.0000000000E+20
 15
-1.0000000000E+20
 25
-1.0000000000E+20
 35
-1.0000000000E+20
146
0.0
 13
0.0
 23
0.0
 33
0.0
 16
1.0
 26
0.0
 36
0.0
 17
0.0
 27
1.0
 37
0.0
 76
     0
330
1B
  0
LAYOUT
  5
26
102
{ACAD_REACTORS
330
1A
102
}
330
1A
100
AcDbPlotSettings
  1

  2
none_device
  4

  6

 40
0.0
 41
0.0
 42
0.0
 43
0.0
 44
0.0
 45
0.0
 46
0.0
 47
0.0
 48
0.0
 49
0.0
140
0.0
141
0.0
142
1.0
143
1.0
 70
   688
 72
     1
 73
     0
 74
     5
  7

 75
    16
147
1.0
148
0.0
149
0.0
100
AcDbLayout
  1
Layout2
 70
     1
 71
     2
 10
0.0
 20
0.0
 11
0.0
 21
0.0
 12
0.0
 22
0.0
 32
0.0
 14
0.0
 24
0.0
 34
0.0
 15
0.0
 25
0.0
 35
0.0
146
0.0
 13
0.0
 23
0.0
 33
0.0
 16
1.0
 26
0.0
 36
0.0
 17
0.0
 27
1.0
 37
0.0
 76
     0
330
23
  0
LAYOUT
  5
22
102
{ACAD_REACTORS
330
1A
102
}
330
1A
100
AcDbPlotSettings
  1

  2
none_device
  4
Letter_(8.50_x_11.00_Inches)
  6

 40
6.35
 41
6.35
 42
6.35000508
 43
6.35000508
 44
215.9
 45
279.4
 46
0.0
 47
0.0
 48
0.0
 49
0.0
140
0.0
141
0.0
142
1.0
143
1.0
 70
  1712
 72
     1
 73
     0
 74
     0
  7

 75
     0
147
1.0
148
0.0
149
0.0
100
AcDbLayout
  1
Model
 70
     1
 71
     0
 10
0.0
 20
0.0
 11
279.4
 21
215.9
 12
0.0
 22
0.0
 32
0.0
 14
0.0
 24
0.0
 34
0.0
 15
279.4
 25
215.9
 35
0.0
146
0.0
 13
0.0
 23
0.0
 33
0.0
 16
1.0
 26
0.0
 36
0.0
 17
0.0
 27
1.0
 37
0.0
 76
     0
330
1F
331
29
  0
MLINESTYLE
  5
18
102
{ACAD_REACTORS
330
17
102
}
330
17
100
AcDbMlineStyle
  2
Standard
 70
     0
  3

 62
   256
 51
90.0
 52
90.0
 71
     2
 49
0.5
 62
   256
  6
BYLAYER
 49
-0.5
 62
   256
  6
BYLAYER
  0
ACDBPLACEHOLDER
  5
F
102
{ACAD_REACTORS
330
E
102
}
330
E
  0
SCALE
  5
48
102
{ACAD_REACTORS
330
47
102
}
330
47
100
AcDbScale
 70
     0
300
1:1
140
1.0
141
1.0
290
     1
  0
SCALE
  5
49
102
{ACAD_REACTORS
330
47
102
}
330
47
100
AcDbScale
 70
     0
300
1:2
140
1.0
141
2.0
290
     0
  0
SCALE
  5
4A
102
{ACAD_REACTORS
330
47
102
}
330
47
100
AcDbScale
 70
     0
300
1:4
140
1.0
141
4.0
290
     0
  0
SCALE
  5
4B
102
{ACAD_REACTORS
330
47
102
}
330
47
100
AcDbScale
 70
     0
300
1:5
140
1.0
141
5.0
290
     0
  0
SCALE
  5
4C
102
{ACAD_REACTORS
330
47
102
}
330
47
100
AcDbScale
 70
     0
300
1:8
140
1.0
141
8.0
290
     0
  0
SCALE
  5
4D
102
{ACAD_REACTORS
330
47
102
}
330
47
100
AcDbScale
 70
     0
300
1:10
140
1.0
141
10.0
290
     0
  0
SCALE
  5
4E
102
{ACAD_REACTORS
330
47
102
}
330
47
100
AcDbScale
 70
     0
300
1:16
140
1.0
141
16.0
290
     0
  0
SCALE
  5
4F
102
{ACAD_REACTORS
330
47
102
}
330
47
100
AcDbScale
 70
     0
300
1:20
140
1.0
141
20.0
290
     0
  0
SCALE
  5
50
102
{ACAD_REACTORS
330
47
102
}
330
47
100
AcDbScale
 70
     0
300
1:30
140
1.0
141
30.0
290
     0
  0
SCALE
  5
51
102
{ACAD_REACTORS
330
47
102
}
330
47
100
AcDbScale
 70
     0
300
1:40
140
1.0
141
40.0
290
     0
  0
SCALE
  5
52
102
{ACAD_REACTORS
330
47
102
}
330
47
100
AcDbScale
 70
     0
300
1:50
140
1.0
141
50.0
290
     0
  0
SCALE
  5
53
102
{ACAD_REACTORS
330
47
102
}
330
47
100
AcDbScale
 70
     0
300
1:100
140
1.0
141
100.0
290
     0
  0
SCALE
  5
54
102
{ACAD_REACTORS
330
47
102
}
330
47
100
AcDbScale
 70
     0
300
2:1
140
2.0
141
1.0
290
     0
  0
SCALE
  5
55
102
{ACAD_REACTORS
330
47
102
}
330
47
100
AcDbScale
 70
     0
300
4:1
140
4.0
141
1.0
290
     0
  0
SCALE
  5
56
102
{ACAD_REACTORS
330
47
102
}
330
47
100
AcDbScale
 70
     0
300
8:1
140
8.0
141
1.0
290
     0
  0
SCALE
  5
57
102
{ACAD_REACTORS
330
47
102
}
330
47
100
AcDbScale
 70
     0
300
10:1
140
10.0
141
1.0
290
     0
  0
SCALE
  5
58
102
{ACAD_REACTORS
330
47
102
}
330
47
100
AcDbScale
 70
     0
300
100:1
140
100.0
141
1.0
290
     0
  0
SCALE
  5
59
102
{ACAD_REACTORS
330
47
102
}
330
47
100
AcDbScale
 70
     0
300
1/128" = 1'-0"
140
0.0078125
141
12.0
290
     0
  0
SCALE
  5
5A
102
{ACAD_REACTORS
330
47
102
}
330
47
100
AcDbScale
 70
     0
300
1/64" = 1'-0"
140
0.015625
141
12.0
290
     0
  0
SCALE
  5
5B
102
{ACAD_REACTORS
330
47
102
}
330
47
100
AcDbScale
 70
     0
300
1/32" = 1'-0"
140
0.03125
141
12.0
290
     0
  0
SCALE
  5
5C
102
{ACAD_REACTORS
330
47
102
}
330
47
100
AcDbScale
 70
     0
300
1/16" = 1'-0"
140
0.0625
141
12.0
290
     0
  0
SCALE
  5
5D
102
{ACAD_REACTORS
330
47
102
}
330
47
100
AcDbScale
 70
     0
300
3/32" = 1'-0"
140
0.09375
141
12.0
290
     0
  0
SCALE
  5
5E
102
{ACAD_REACTORS
330
47
102
}
330
47
100
AcDbScale
 70
     0
300
1/8" = 1'-0"
140
0.125
141
12.0
290
     0
  0
SCALE
  5
5F
102
{ACAD_REACTORS
330
47
102
}
330
47
100
AcDbScale
 70
     0
300
3/16" = 1'-0"
140
0.1875
141
12.0
290
     0
  0
SCALE
  5
60
102
{ACAD_REACTORS
330
47
102
}
330
47
100
AcDbScale
 70
     0
300
1/4" = 1'-0"
140
0.25
141
12.0
290
     0
  0
SCALE
  5
61
102
{ACAD_REACTORS
330
47
102
}
330
47
100
AcDbScale
 70
     0
300
3/8" = 1'-0"
140
0.375
141
12.0
290
     0
  0
SCALE
  5
62
102
{ACAD_REACTORS
330
47
102
}
330
47
100
AcDbScale
 70
     0
300
1/2" = 1'-0"
140
0.5
141
12.0
290
     0
  0
SCALE
  5
63
102
{ACAD_REACTORS
330
47
102
}
330
47
100
AcDbScale
 70
     0
300
3/4" = 1'-0"
140
0.75
141
12.0
290
     0
  0
SCALE
  5
64
102
{ACAD_REACTORS
330
47
102
}
330
47
100
AcDbScale
 70
     0
300
1" = 1'-0"
140
1.0
141
12.0
290
     0
  0
SCALE
  5
65
102
{ACAD_REACTORS
330
47
102
}
330
47
100
AcDbScale
 70
     0
300
1-1/2" = 1'-0"
140
1.5
141
12.0
290
     0
  0
SCALE
  5
66
102
{ACAD_REACTORS
330
47
102
}
330
47
100
AcDbScale
 70
     0
300
3" = 1'-0"
140
3.0
141
12.0
290
     0
  0
SCALE
  5
67
102
{ACAD_REACTORS
330
47
102
}
330
47
100
AcDbScale
 70
     0
300
6" = 1'-0"
140
6.0
141
12.0
290
     0
  0
SCALE
  5
68
102
{ACAD_REACTORS
330
47
102
}
330
47
100
AcDbScale
 70
     0
300
1'-0" = 1'-0"
140
12.0
141
12.0
290
     0
  0
ENDSEC
  0
EOF
